» » »

N.E.R.D., Lapdance Bass tabs (ver.1)

Artists:  A B C D E F G H I J K L M N O P Q R S T U V W X Y Z # 

Lapdance Bass tabs (ver.1)

N.E.R.D. Tabs
 Rating:
4/5 (4 votes)
Lapdance lessons Tabs too difficult? Try these video lessons and learn fast
1
                
This is the version with the live band on the record, but it's probably
the same on the retail album.

By no means do I represent the actual rythm on these tabs so just listen
to the album for the timing and everything

Verse

G------------------
D------------------
A------------------
E1-0---------------

every third rotation do this

G----------------------------------
D----------------------------------
A----------------------------------
E1-0----------3-0-0-0-0-0-0-0-0-0-0

Chorus (Oh baby you want me?)

G---------------------------------------------------------------
D---------------------------------------------------------------
A---------------------------------------------------------------
E1-0-1-1-2-2-3-1-0-1-1-2-2-3-1-0-1-1-2-2-3-0-0-0-0-0-0-0-0-0-0-0

*Lee Harvey's rap

Follow this outline during Lee Harvey's Rap

Chorus X2
Verse X2

do this when he says "and you know the flow...."

G------------------------------------
D------------------------------------
A------------------------------------
E-------0-----------------3-0->-
        ^
and you know the flow

Chorus X1

Then for the rest of the song just keep repeating the chorus

If anybody could tab out Run To The Sun that would be great
            
Submit corrections

comments powered by Disqus
↑ Back to top | N.E.R.D. Bass for Lapdance. Lyrics for acoustic guitar and electric guitar. 1 Tablatures and chords are parodies/interpretations of the original songs. You may use it for private study, scholarship, research or language learning purposes only