» » »

Hot N Fun Bass tabs (ver.1)

Artists:  A B C D E F G H I J K L M N O P Q R S T U V W X Y Z # 

Hot N Fun Bass tabs (ver.1)

N.E.R.D.
Rating:
0/5 (0 votes)

Hard to play? Try these video lessons and learn fast.
                This is quiet simple...


G|----------------------------------------------------------------------------|
D|------3--3--4-----3--4------------------------------------------------------|
A|----3--3--------3-----------------------------------------------------------|
E|----------------------------------------------------------------------------|

Again and again...


If you want to change:

G|------------------------------------------------------------------------------|
D|------------------------------------------------------------------------------|
A|------8--8--9----8--9---------------------------------------------------------|
E|----8--8-------8--------------------------------------------------------------|

Good Luck!!
            
Hard to play? Try these video lessons and learn fast. | Correct




comments powered by Disqus
↑ Back to top | Tablatures and chords are parodies/interpretations of the original songs. You may use it for private study, scholarship, research or language learning purposes only