» » »

N.E.R.D., Don't Worry About It Tabs (ver.1)

Artists:  A B C D E F G H I J K L M N O P Q R S T U V W X Y Z # 

Don't Worry About It Tabs (ver.1)

N.E.R.D. Tabs
 Rating:
4/5 (4 votes)
Don't Worry About It lessons Tabs too difficult? Try these video lessons and learn fast
1
                
Tuning:
Main Riff (parenthesized notes are played only in live version)
e|--------------------------------------------------------------------------|
B|--------------------------------------------------------------------------|
G|--------------------------------------------------------------------------|
D|(4)--(4)(4)--(4)(4)---(4)--(4)(4)—-(4)(4)---------------------------------|
A|--------------------------------------------------------------------------|
E|-2----2--2----2--2-----2----2--2----2--2----------------------------------|

This is the fill that comes in a couple times in the verses
e|--------------------------------------------------------------------------|
B|--5p3-5/(6)-7-------------------------------------------------------------|
G|--------------------------------------------------------------------------|
D|--------------------------------------------------------------------------|
A|--------------------------------------------------------------------------|
E|--------------------------------------------------------------------------|

Kick ass riff (Correct Version.. Finally)
e|--------------------------------------------------------------------------|
B|-12b(13)-12—10~~~~~~-------------------12b(13)-12—10~~~~------------------|
G|---------------------11p9----11~~-----------------------11----9h11~~~~~~--|
D|--------------------------11-------------------------------11-------------|
A|--------------------------------------------------------------------------|
E|--------------------------------------------------------------------------|

e|--------------------------------------------------------------------------|
B|-12b(13)-12—10~~~~~~------------------------------------------------------|
G|---------------------11p9---9h11~~~~~~~~----------------------------------|
D|--------------------------11----------------------------------------------|
A|--------------------------------------------------------------------------|
E|--------------------------------------------------------------------------|

After 2nd "Don't worry 'bout it" ... 

        Ooohhhhhhhhhhhhhhooooohhhhhaaaaaaaaaaaaaaaaaaaaaaaaaaaaaaaaaaaaaa"
e|--------------------------------------------------------------------------|
B|--------------------------------------------------------------------------|
G|-------1010101010101010----------12121212-7-7-7-7-7-7-7-7-7-7-7-7-7-7-7---|
D|-------1010101010101010-10101010-12121212-7-7-7-7-7-7-7-7-7-7-7-7-7-7-7---|
A|--------8-8-8-8-8-8-8-8-10101010-10101010-5-5-5-5-5-5-5-5-5-5-5-5-5-5-5---|
E|-------------------------8-8-8-8------------------------------------------|

(Timing)  1+2+3+4+5+6+7+8  1+2+3+4  1+2+3+4 1+2+3+4+5+6+7+8+1+2+3+4+5+6+8 

I welcome comments and critiques
            
Submit corrections

comments powered by Disqus
↑ Back to top | N.E.R.D. Tabs for Don't Worry About It. Lyrics for acoustic guitar and electric guitar. 1 Tablatures and chords are parodies/interpretations of the original songs. You may use it for private study, scholarship, research or language learning purposes only