» » »

N.E.R.D., Anti Matter Tabs (ver.1)

Artists:  A B C D E F G H I J K L M N O P Q R S T U V W X Y Z # 

Anti Matter Tabs (ver.1)

N.E.R.D. Tabs
Rating:
0/5 (0 votes)
Anti Matter lessons Tabs too difficult? Try these video lessons and learn fast
                Album:Seeing Sounds

It's a great album you should really check it out
Thank you.


Intro

e|---------------------------------|
B|---------------------------------|
G|---------------------------------|
D|---------------------------------|
A|---------------------------------|
E|-3-33\66\8~10~13p10/8-1086/35^63~|

e|-------------10~13p10--10---------------|
B|-8-88\1111\13--------13--1311/8\11^13/8~|
G|----------------------------------------|
D|----------------------------------------|
A|----------------------------------------|
E|----------------------------------------|

Chorus

Guitar 1 (heavy distortion)


e|---------------------------------|
B|---------------------------------|
G|---------------------------------|
D|---------------------------------|
A|---------------------------------|x3
E|-3-33\66\8~10~13p10/8-1086/35^63~|

Guitar 2 (distortion)


e|-------------10~13p10--10---------------|
B|-8-88\1111\13--------13--1311/8\11^13/8~|
G|----------------------------------------|
D|----------------------------------------|
A|----------------------------------------|x3
E|----------------------------------------|

after 3rd time:

Guitar 2

e|15-1515-1414-1313-10--10---------------|
B|--------------------13--13p11--11^13---|
G|-----------------------------12-----12~|
D|---------------------------------------|
A|---------------------------------------|
E|---------------------------------------|

Verse

Guitar 1 (heavy distortion)

e|-------------|
B|-------------|
G|-------------|
D|-------------|
A|-------------| play a few times, dunno when exactly, dunno how many times exactly
E|88b10r8/65/3~|


Chorus

Guitar 1 (heavy distortion)


e|---------------------------------|
B|---------------------------------|
G|---------------------------------|
D|---------------------------------|
A|---------------------------------|x3
E|-3-33\66\8~10~13p10/8-1086/35^63~|

Guitar 2 (distortion)


e|-------------10~13p10--10---------------|
B|-8-88\1111\13--------13--1311/8\11^13/8~|
G|----------------------------------------|
D|----------------------------------------|
A|----------------------------------------|x3
E|----------------------------------------|

after 3rd time:

Guitar 2

e|15-1515-1414-1313-10--10---------------|
B|--------------------13--13p11--11^13---|
G|-----------------------------12-----12~|
D|---------------------------------------|
A|---------------------------------------|
E|---------------------------------------|

Verse

Guitar 1 (heavy distortion)

e|-------------|
B|-------------|
G|-------------|
D|-------------|
A|-------------| the same as last verse
E|88b10r8/65/3~|


Chorus

Guitar 1 (heavy distortion)


e|---------------------------------|
B|---------------------------------|
G|---------------------------------|
D|---------------------------------|
A|---------------------------------|x3
E|-3-33\66\8~10~13p10/8-1086/35^63~|

Guitar 2 (distortion)


e|-------------10~13p10--10---------------|
B|-8-88\1111\13--------13--1311/8\11^13/8~|
G|----------------------------------------|
D|----------------------------------------|
A|----------------------------------------|x3
E|----------------------------------------|

after 3rd time:

Guitar 2

e|15-1515-1414-1313-10--10---------------|
B|--------------------13--13p11--11^13---|
G|-----------------------------12-----12~|
D|---------------------------------------|
A|---------------------------------------|
E|---------------------------------------|

Bridge:
no guitar, but u can play bar chords.
follow barchords:
Bm A G F#

play a few times again.

Chorus

Guitar 1 (heavy distortion)


e|---------------------------------|
B|---------------------------------|
G|---------------------------------|
D|---------------------------------|
A|---------------------------------|x3
E|-3-33\66\8~10~13p10/8-1086/35^63~|

Guitar 2 (distortion)


e|-------------10~13p10--10---------------|
B|-8-88\1111\13--------13--1311/8\11^13/8~|
G|----------------------------------------|
D|----------------------------------------|
A|----------------------------------------|x3
E|----------------------------------------|

after 3rd time:

Guitar 2

e|15-1515-1414-1313-10--10---------------|
B|--------------------13--13p11--11^13---|
G|-----------------------------12-----12~|
D|---------------------------------------|
A|---------------------------------------|
E|---------------------------------------|

Outro:

Guitar 1 (heavy distortion)

e|-------------|
B|-------------|
G|-------------|
D|-------------|
A|-------------| bit like the verses just a bit more weird
E|88b10r8/65/3~|
            

comments powered by Disqus
↑ Back to top | N.E.R.D. Tabs for Anti Matter. Lyrics for acoustic guitar and electric guitar. Tablatures and chords are parodies/interpretations of the original songs. You may use it for private study, scholarship, research or language learning purposes only