» » »

Nephew, Sway Bass tabs (ver.1)

Artists:  A B C D E F G H I J K L M N O P Q R S T U V W X Y Z # 

Sway Bass tabs (ver.1)

Nephew Tabs
Rating:
0/5 (0 votes)
Hard to play? Try these video lessons and learn fast.
                -------------------------------------------------------------------------------
-------------------------------------------------------------------------------



Feel free to write me to ask questions. I'm not a 100% sure about the chorus, so if you 
the mistakes and know what it should be, please write me an I'll change it.

Tuning: standard (EADG)

Intro (starts at 0:13)
G|-------------------------------------------------------------------------|
D|-12-12-12-12-12-12-12-12-1010101010101010-99999999-----------------------|
A|-------------------------------------------------------------------------|
E|-------------------------------------------------------------------------|

Verse
G|-------------------------------------------------------------------------|
D|-77777777777777777777777777777777-12121212121212121212121212121212-------|
A|-------------------------------------------------------------------------|
E|-------------------------------------------------------------------------|

G|-------------------------------------------------------------------------|
D|-1010101010101010-99999999-----------------------------------------------|
A|-------------------------------------------------------------------------|
E|-------------------------------------------------------------------------|

G|-------------------------------------------------------------------------|
D|-77777777777777777777777777777777-10101010101010101010101010101010-------|
A|-------------------------------------------------------------------------|
E|-------------------------------------------------------------------------|

G|-------------------------------------------------------------------------|
D|-5555555555555555--------------------------------------------------------|
A|-------------------------------------------------------------------------|
E|-------------------------------------------------------------------------|

G|-------------------------------------------------------------------------|
D|-777771079777771079777771079777771079-1212121212121212-------------------|
A|-------------------------------------------------------------------------|
E|-------------------------------------------------------------------------|

G|-------------------------------------------------------------------------|
D|-1010101010101010-99999999-----------------------------------------------|
A|-------------------------------------------------------------------------|
E|-------------------------------------------------------------------------|

G|-------------------------------------------------------------------------|
D|-777771079777771079777771079777771079-10101010101010101010101010101010---|
A|-------------------------------------------------------------------------|
E|-------------------------------------------------------------------------|

G|-------------------------------------------------------------------------|
D|-5555555555555555--------------------------------------------------------|
A|-------------------------------------------------------------------------|
E|-------------------------------------------------------------------------|

Chorus x2
G|-----------------------|
D|-77-------57--77----5--|
A|----35-57--------35----|
E|-----------------------|

2nd Verse
G|-------------------------------------------------------------------------|
D|-777771079777771079777771079777771079-1212121212121212-------------------|
A|-------------------------------------------------------------------------|
E|-------------------------------------------------------------------------|

G|-------------------------------------------------------------------------|
D|-1010101010101010-99999999-----------------------------------------------|
A|-------------------------------------------------------------------------|
E|-------------------------------------------------------------------------|

G|-------------------------------------------------------------------------|
D|-777771079777771079777771079777771079-1212121212121212-------------------|
A|-------------------------------------------------------------------------|
E|-------------------------------------------------------------------------|

G|-------------------------------------------------------------------------|
D|-1010101010101010-99999999-----------------------------------------------|
A|-------------------------------------------------------------------------|
E|-------------------------------------------------------------------------|

G|-------------------------------------------------------------------------|
D|-777771079777771079777771079777771079-10101010101010101010101010101010---|
A|-------------------------------------------------------------------------|
E|-------------------------------------------------------------------------|

G|-------------------------------------------------------------------------|
D|-5555555555555555--------------------------------------------------------|
A|-------------------------------------------------------------------------|
E|-------------------------------------------------------------------------|

Chorus x4
G|-----------------------|
D|-77-------57--77----5--|
A|----35-57--------35----|
E|-----------------------|

Outro x2
G|-------------------------------------------------------------------------|
D|-777771079777771079777771079777771079-1212121212121212-------------------|
A|-------------------------------------------------------------------------|
E|-------------------------------------------------------------------------|

G|-------------------------------------------------------------------------|
D|-22222222-33333333-1212121212121212-1414141414141414-1717171717171717----|
A|-------------------------------------------------------------------------|
E|-------------------------------------------------------------------------|


| /  slide up
| \  slide down
| h  hammer-on
| p  pull-off
| ~  vibrato
| +  harmonic
| x  Mute note
===============================================================================
            

comments powered by Disqus
↑ Back to top | Nephew Bass for Sway. Lyrics for acoustic guitar and electric guitar. Tablatures and chords are parodies/interpretations of the original songs. You may use it for private study, scholarship, research or language learning purposes only