» » »

Police Bell Church Sirens Bass tabs (ver.1)

Artists:  A B C D E F G H I J K L M N O P Q R S T U V W X Y Z # 

Police Bell Church Sirens Bass tabs (ver.1)

Nephew
Rating:
0/5 (0 votes)

Hard to play? Try these video lessons and learn fast.
                -------------------------------------------------------------------------------
			     Police Bells & Church Sirens - Nephew
-------------------------------------------------------------------------------


Tuning:

G|--------------------|
D|--------------------|
A|--------------------|
E|-5~----7~----12~----|

G|--------------------------|
D|--------------------------|
A|-------------------1010---|
E|-5~----7~----0~-----------|

Verse
G|-------------------------|
D|-------------------------|
A|-------------------------|
E|-5~----7~----12~---------|

G|-------------------------|
D|-------------------------|
A|-------------------------|
E|-5~----7~----12~----15~--|

G|-------------------------|
D|-------------------------|
A|-------------------------|
E|-5~----7~----12~---------|

G|-----------------------------|
D|-----------------------------|
A|-----------------------------|
E|-5~----7~----15~--p14h15p14--|

Chorus
G|----------------------------------------------|
D|----------------------------------------------|
A|----------------------------------------------|
E|-5~----7~----12-12--12-12-12-15-12--12-12-----|

G|----------------------------------------------|
D|----------------------------------------------|
A|----------------------------------------------|
E|-5~----7~----12-12--12-12-14h15-1515----------|

G|----------------------------------------------|
D|----------------------------------------------|
A|----------------------------------------------|
E|-5~----7~----12-12--12-12-12-15-12--12-12-----|

G|------------------|
D|------------------|
A|------------------|
E|-5~----7~----15~--|

Post Chorus
G|----------------------------------------------|
D|----------------------------------------------|
A|----------------------------------------------|
E|-5-5-77-88-7-7-33-11-12-12-12-12-12-12-12-12--|

G|----------------------------------------------|
D|----------------------------------------------|
A|----------------------------------------------|
E|-5-5-77-88-7-7-33-11-12-12-12-12-12-12-15-15--|

2nd Verse
G|-------------------------------------------|
D|-------------------------------------------|
A|-------------------------------------------|
E|-5-5-5-5-7-7-7-7-12-12-12-12-12-12-12-12---| x3

G|-------------------------------------------|
D|-------------------------------------------|
A|-------------------------------------------|
E|-5-5-5-5-7-7-7-7-15-15-15-15-14-14-14-14---|

Chorus
Post Chorus x2
(No bass until 3:49 where you just slide up from wherever below E|-10-|)
Chorus x1

Chorus Variaton
G|----------------------------------------------|
D|----------------------------------------------|
A|----------------------------------------------|
E|-5~----7~----12-12--12-12-12-15-12--12-12-----|

G|----------------------------------------------|
D|----------------------------------------------|
A|----------------------------------------------|
E|-5~----7~----12-12--12-12-14h15-1515----------|

G|----------------------------------------------|
D|----------------------------------------------|
A|----------------------------------------------|
E|-5~----7~----12-12--12-12-12-15-12--12-12-----|

G|------------------------|
D|------------------------|
A|------------------------|
E|-5~----7~----15~----14~-|

| /  slide up
| \  slide down
| h  hammer-on
| p  pull-off
| ~  vibrato
| +  harmonic
| x  Mute note
===============================================================================
            
Hard to play? Try these video lessons and learn fast. | Correct




comments powered by Disqus
↑ Back to top | Tablatures and chords are parodies/interpretations of the original songs. You may use it for private study, scholarship, research or language learning purposes only