>
 >
Movieklip

Movieklip Bass Tabs

Nephew - Movieklip chords, tabs, tablatures, lyrics

Guitar lessons | Add/correct | Request | Top 50 tabs Artists:  A B C D E F G H I J K L M N O P Q R S T U V W X Y Z 0-9

Movieklip Bass Tabs – Nephew

CD, Sheet music, Poster

Do you like Movieklip? Share with your friends now
Bass TabsChordsChords v2TabsUkulele
----------------------------------------------------------------------------
----------------------------------------------------------------------------

Tuning: Standard

Intro:
G|--------------------------------------------------------------------------|
D|--------------------------------------------------------------------------|
A|77-77-77-77-77-77-77-77-77-77-77-77-77-77-77-77-88-88-88-88/17-17-17-17//-|
E|--------------------------------------------------------------------------|

G|-------------------------------------------------------------------------|
D|-------------------------------------------------------------------------|
A|1212-1212-1212-1212-1212-1212-1212-1212--1010-1010-1010-1010--77-77-77-77|
E|-------------------------------------------------------------------------|


Vers:
G|---------------|---------------|---------------|---------------|
D|---------------|---------------|---------------|---------------|
A|-0--0--0-3-3-0-|-0--0--0-3-3-0-|-0--0--0-3-3-0-|-0--0--0-3-3-0-|
E|---------------|---------------|---------------|---------------|

G|---------------|---------------|---------------|---------------|
D|---------------|---------------|---------------|---------------|
A|---------------|---------------|---------------|---------------|
E|-0--0--0-3-3-0-|-0--0--0-3-3-0-|-0--0--0-3-3-0-|-0--0--3-5-3-0-|

G|---------------|---------------|---------------|---------------|
D|---------------|---------------|---------------|---------------|
A|---------------|-5--5--5-5-5-5-|-0--0--0-3-3-0-|-0--0--0-3-3-0-|
E|-1--1--1-1-1-1-|---------------|---------------|---------------|

G|---------------|---------------|
D|---------------|---------------|
A|---------------|-77-77-77-77---|
E|-3--3--3-3-3-3-|---------------|


Mellem stykke:
G|---------------------------------------------------------------------------------|
D|---------------------------------------------------------------------------------|
A|-1212-1212-1212-1212-1212-1212-1212-1212-1212-1212-1212-1212-1212-1212-1212-1212-|
E|---------------------------------------------------------------------------------|

G|-------------------------------------------------|
D|-------------------------------------------------|
A|-77-77-77-77-77-77-77-77-77-77-77-77-77-77-77-77-|
E|-------------------------------------------------|

===    Vers    ===

Før-Omkvæd:
"     Jeg ser et movieklip.... Andre, ind på dig aa-aah "
G|-----------------------------------------------------|
D|-0---------------------------------------------------|
A|-----------------------------------------------------|
E|-----------------------------1--------------------3--|


Omkvæd:
G|------------------------------------------------|
D|-0--0--0--0--0--0--0--0-------------------------|
A|------------------------------------------------|
E|-------------------------1--1--1--1--3--3--3--3-|

G|------------------------------------------------|
D|-0--0--0--0--0--0--0--0-------------------------|
A|------------------------------------------------|
E|-------------------------1--1--1--1--3--3-/8--7-|

G|------------------------------------------------|
D|------------------------------------------------|
A|-0--0--0--0--0--0--0--0--3--3--3--3-------------|
E|-------------------------------------1--1-//8-7-|

G|--------------------------------------------------|
D|--------------------------------------------------|
A|-0--0--0--0---------------------------------------|
E|-------------3/-5--55--5/8--8--8--8--8--1--1//8-7-|


===Mellem-stykke===


===    Vers     ===


=== Før-Omkvæd  ===


===   Omkvæd    ===


Solo:
G|-------------------------------------------------------------|
D|-------------------------------------------------------------|
A|-------------------------------------------------------------|
E|-00-00-00-00-00-00-00-00-00-00-00-00-00-00-00-00-11-11-11-11-|

G|-------------------------------------------------------------------|
D|-00-00-00-00-------------------------------------------------------|
A|--------------00-00-00-00-00-00-00-00---------------77-77-77-77--5-|
E|---------------------------------------33-33-33-33-----------------|


Outro:
G|------------------------------------------------|
D|------------------------------------------------|
A|-------------------------5--5--5--5--5--5--5--5-|
E|-1--1--1--1--3--3--3--3-------------------------|

G|------------------------------------------------|
D|------------------------------------------------|
A|-------------------------0--0--0--0--0--0--0--0-|
E|-1--1--1--1--3--3/-8--7-------------------------|

G|---------------------------------------|---------------|---------------|---------------|---|
D|---------------------------------------|---------------|---------------|---------------|---|
A|-3--3--3--3--------------0--0--0-3-3-0-|-0--0--0-3-3-0-|-0--0--0-3-3-0-|-0--0--0-3-3-0-|-0-|
E|-------------1--1//-8-7----------------|---------------|---------------|---------------|---|

Til min ven, Tom Ove. PEACE MAN!!!  \,,/





Comments


Popular Nephew tabs & chords
007 Is Also Gonna Die Bass Tabs
Bazooka Bass Tabs
Igen Igen Chords
Mexico Ligger I Spanien Chords
Bazooka Tabs
Blaa Black 1 Tabs
En Wannabe Darth Vader Tabs
Movieklip Intro Tabs
Ordenspoliti Intro Tabs
Taxa Triumf Tabs


Song lyrics



↑ Back to top | Tablatures and chords are parodies/interpretations of the original songs. You may use it for private study, scholarship, research or language learning purposes only
© 2014 AZChords.com Contact us | Privacy policy | DMCA | Add/correct tabs | Request tabs | Top 50 tabs