» » »

Laesterlige Kloe Tabs (ver.1)

Artists:  A B C D E F G H I J K L M N O P Q R S T U V W X Y Z # 

Laesterlige Kloe Tabs (ver.1)

Nephew
Rating:
5/5 (2 votes)

Hard to play? Try these video lessons and learn fast.
                ----------------------------------------------------------------------------
                          Læsterlige Klø - Nephew
----------------------------------------------------------------------------

Tuning: Standard.

Hey. Den her sang handler om tanke-eksperimenter og fantasier
som flere mennesker kan går rundt med i deres hverdag.

Her hentyder Simon til (Som jo er meget indlysende på teksten),
at han tæver en person han ikke kan lide, i sine tanker.
- Fed sang som er ond på sin egen måde.

Vers:
e|-----------------------------------------------------------------|
B|-----------------------------------------------------------------|
G|-----------------------------------------------------------------|
D|-5-5-5-5-5-5-5-5-5-5-5-5-5-5-5-5-5-5-5-5-5-5-5-5-5-5-5-5-5-5-5-5-|
A|-5-5-5-5-5-5-5-5-5-5-5-5-5-5-5-5-5-5-5-5-5-5-5-5-5-5-5-5-5-5-5-5-|
E|-3-3-3-3-3-3-3-3-3-3-3-3-3-3-3-3-3-3-3-3-3-3-3-3-3-3-3-3-3-3-3-3-|

e|--------------------------------------------------------------------|
B|--------------------------------------------------------------------|
G|--------------------------------------------------------------------|
D|-6-6-6-6-6-6-6-6--1010101010101010--5-5-5-5-5-5-5-5-5-5-5-5-5-5-5-5-|
A|-6-6-6-6-6-6-6-6--1010101010101010--5-5-5-5-5-5-5-5-5-5-5-5-5-5-5-5-|
E|-4-4-4-4-4-4-4-4--8-8-8-8-8-8-8-8---3-3-3-3-3-3-3-3-3-3-3-3-3-3-3-3-|


Du kan også tage kvinten ligesom klaveret i stedet for.
Det lyder federe, synes jeg:
e|-----------------------------------------------------------------|
B|-----------------------------------------------------------------|
G|-----------------------------------------------------------------|
D|-5-5-5-5-5-5-5-5-5-5-5-5-5-5-5-5-5-5-5-5-5-5-5-5-5-5-5-5-5-5-5-5-|
A|-5-5-5-5-5-5-5-5-5-5-5-5-5-5-5-5-5-5-5-5-5-5-5-5-5-5-5-5-5-5-5-5-|
E|-3-3-3-3-3-3-3-3-3-3-3-3-3-3-3-3-3-3-3-3-3-3-3-3-3-3-3-3-3-3-3-3-|

e|--------------------------------------------------------------------|
B|--------------------------------------------------------------------|
G|--------------------------------------------------------------------|
D|-6-6-6-6-6-6-6-6--5-5-5-5-5-5-5-5--5-5-5-5-5-5-5-5-5-5-5-5-5-5-5-5--|
A|-6-6-6-6-6-6-6-6--3-3-3-3-3-3-3-3--5-5-5-5-5-5-5-5-5-5-5-5-5-5-5-5--|
E|-4-4-4-4-4-4-4-4--3-3-3-3-3-3-3-3--3-3-3-3-3-3-3-3-3-3-3-3-3-3-3-3--|


Omkvæd. "Hva' det for en underlig trang..?"
e|---------------------------|
B|---------------------------|
G|---------------------------|
D|-5------8------5--7--8--8\-|
A|-5------8------5--7--6--8\-|
E|-3------6------3--5-----6\-|

Tilbage til 2. vers.

Tilbage til 2. omkvæd, hvor der er ændring:
e|------------------------------------------------------------|
B|------------------------------------------------------------|
G|------------------------------------------------------------|
D|-5------8------5--7--8--8\--5-5-5-5-5-5-5-5-5-5-5-5-5-5-5-5-|
A|-5------8------5--7--6--8\--5-5-5-5-5-5-5-5-5-5-5-5-5-5-5-5-|
E|-3------6------3--5-----6\--3-3-3-3-3-3-3-3-3-3-3-3-3-3-3-3-|

e|------------------------------------------------------------|
B|------------------------------------------------------------|
G|------------------------------------------------------------|
D|-8-8-8-8-8-8-8-8-8-8-8-8-8-8-8-8--5-5-5-5--7-7-7-7--8-8-8-8-|
A|-8-8-8-8-8-8-8-8-8-8-8-8-8-8-8-8--5-5-5-5--7-7-7-7--6-6-6-6-|
E|-6-6-6-6-6-6-6-6-6-6-6-6-6-6-6-6--3-3-3-3--5-5-5-5----------|

e|--------------------------------------|
B|--------------------------------------|
G|--------------------------------------|
D|-8-8-8-8--8-8-8-8-8-8-8-8-8-8-8-8-8-8-|
A|-8-8-8-8--8-8-8-8-8-8-8-8-8-8-8-8-8-8-|
E|-6-6-6-6--6-6-6-6-6-6-6-6-6-6-6-6-6-6-|
            
Hard to play? Try these video lessons and learn fast. | Correct




comments powered by Disqus
↑ Back to top | Tablatures and chords are parodies/interpretations of the original songs. You may use it for private study, scholarship, research or language learning purposes only