» » »

Nephew, Igen Og Igen Og Bass tabs (ver.1)

Artists:  A B C D E F G H I J K L M N O P Q R S T U V W X Y Z # 

Igen Og Igen Og Bass tabs (ver.1)

Nephew Tabs
 Rating:
4.2/5 (5 votes)
Igen Og Igen Og lessons Tabs too difficult? Try these video lessons and learn fast
1
                ----------------------------------------------------------------------------
----------------------------------------------------------------------------


Tuning: Standard


intro riff:
G|------------------------------------------------------------------------|
D|------------------------------------------------------------------------|
A|----------------------4-------1---------------------------4-------1-----|
E|-4-3-1----4-3-1---------------------4-3-1-----4-3-1---------------------|

G|-----------|
D|-----------|
A|-6--6--6/8-|
E|-----------|

vers:
G|-----------------------------------------------|
D|*----------------------------------------------|
A|*-8--8--8--8--8--8--8--8--8--8--8--8--8--8--10-|
E|-----------------------------------------------|

G|-------------------------------------------------------------|
D|------------------------------------------------------------*|
A|-11--11--11--11--11--11--11--11--11--4--4--4--4--4--1--1--1-*|
E|-------------------------------------------------------------|

Omkvæd "for"  "så"                   "for"  "så"
G|------------------------------------------------------------|
D|-------6------3----------------------6------3---------------|
A|-------4------1----------------------4------1---------------|
E|-1--------------------1------1--------------------1-------1-|

Lille breakdown før 2. vers:
G|--------------------------|
D|--------------------------|
A|-4-----1--------6--6--6/8-|
E|--------------------------|


=== 2. Vers ===


2. omkvæd med fill op til B-stykke:
G|----------------------------------------------------------|
D|-------6------3----------------------6------3-------------|
A|-------4------1----------------------4------1-------------|
E|-1--------------------1------1--------------------1-------|

G|-----------------------------------------------------------------|
D|-----------------------------------------------------------------|
A|-----------------------------------------------------------------|
E|-1-1-1-1-1-1-1-1-1-1-4-4-3-3-1-1-1-1-1-1-1-1-1-1-1-1-4-4-3-3-(1)-|


B-Stykke:
Grunden til at jeg har sat "1" i parentes
i overstående og nederstående riff,
er fordi at det er sl*tningen på fillet,
men samtidig starten på B-stykket:
G|-------------------------------------------|
D|-------------------------------------------|
A|---------------4-------------------------4-|
E|-(1)----4--------------1-----------4-------|

C-stykke (Tema):

Grunden til at jeg har lavet dobbelt mellemrum
for hver akkord skift er kun for nemmere læse-forståelse :)
Men ehm... Rock on:
G|----------------------------------------------------------------|
D|*---------------------------------------------------------------|
A|*-8-8-8-8-8-8-8-8-8-8-8-8-8-8--6-6-6-6-6-6-6-6--3-3-3-3-3-3-3-3-|
E|----------------------------------------------------------------|

G|------------------------------------------------------------------------|
D|-----------------------------------------------------------------------*|
A|-4-4-4-4-4-4-4-4--1-1-1-1-1-1-1-1--4-4-4-4-4-4-4-4--6-6-6-6-6/11-11-11-*|
E|------------------------------------------------------------------------|


Outro:
G|---------------------------------------------------------------|
D|---------------------------------------------------------------|
A|---------------------------------------------------------------|
E|-1-1-1-1-1-1-1-1-1-1-4-4-3-3-1-1-1-1-1-1-1-1-1-1-1-1-4-4-3-3-1-|

Det skulle være lige til.
Har forsøgt at give så god vejledning som muligt :)
            
Submit corrections

comments powered by Disqus
↑ Back to top | Nephew Bass for Igen Og Igen Og. Lyrics for acoustic guitar and electric guitar. 1 Tablatures and chords are parodies/interpretations of the original songs. You may use it for private study, scholarship, research or language learning purposes only