» » »

Nephew, Hurra Tabs (ver.2)

Artists:  A B C D E F G H I J K L M N O P Q R S T U V W X Y Z # 

Hurra Tabs (ver.2)

Nephew Tabs
Rating:
0/5 (0 votes)
Hurra lessons Tabs too difficult? Try these video lessons and learn fast
                ----------------------------------------------------------------------------
----------------------------------------------------------------------------

Tuning: Standard


Guitar kommer ind i 2. vers.

tonerne spilles kun én gang, men bliver
gentaget af en indstillet delay:

e|----------------------------------------------------------------------------|
B|----------------------------------------------------------------------------|
G|----------------------------------------------------------------------------|
D|-7~~-------5~~------8~~------7~~-------7~~------5~~-----3~~---3~~--5~~--7~~-|
A|----------------------------------------------------------------------------|
E|----------------------------------------------------------------------------|

B-Stykke/Mellemspil:
e|------------------------------------------------------|
B|-------------------------------10------11----11----10-|
G|*-------9--10----------9--10-------10-----10----10----|
D|*-7--8------------8-----------------------------------|
A|------------------------------------------------------|
E|------------------------------------------------------|

e|------------------------------------------------------|
B|----------------------------10------11------10--------|
G|-------9--10----------9--10------10------10----------*|
D|-7--8--------------7---------------------------------*|
A|------------------------------------------------------|
E|------------------------------------------------------|

Hurra, hurra, yippie yeah...
Hurra, hurra...
YIPPIE YEEEEEEEEEEEEEEEEEEEEEEAH!!:

e|--------------------------------------------------------------------------|
B|--------------------------------------------------------------------------|
G|-7-7-7-7--5-5-5-5--3-3-3-3--2-2-2-2-------------------10-10-10-10-9-9-9-9-|
D|-7-7-7-7--5-5-5-5--3-3-3-3--2-2-2-2--5-5-5-5-5-5-5-5--10-10-10-10-9-9-9-9-|
A|-5-5-5-5--3-3-3-3--1-1-1-1--0-0-0-0--5-5-5-5-5-5-5-5--8--8--8--8--7-7-7-7-|
E|-------------------------------------3-3-3-3-3-3-3-3----------------------|

e|-----------------------------------------------------------------------|
B|-----------------------------------------------------------------------|
G|-7-7-7-7-7-7-7-7-7-7-7-7-7-7-7-7--3-3-3-3-3-3-3-3--10-10-10-10-9-9-9-9-|
D|-7-7-7-7-7-7-7-7-7-7-7-7-7-7-7-7--3-3-3-3-3-3-3-3--10-10-10-10-9-9-9-9-|
A|-5-5-5-5-5-5-5-5-5-5-5-5-5-5-5-5--1-1-1-1-1-1-1-1--8--8--8--8--7-7-7-7-|
E|-----------------------------------------------------------------------|

e|-------------------------------------------------|
B|-------------------------------------------------|
G|-7-7-7-7-7-7-7-7---------------------------------|
D|-7-7-7-7-7-7-7-7--5-5-5-5-5-5-5-5--8-8-8-8-8-8-8-|
A|-5-5-5-5-5-5-5-5--5-5-5-5-5-5-5-5--8-8-8-8-8-8-8-|
E|------------------3-3-3-3-3-3-3-3--6-6-6-6-6-6-6-|


Den ekstra guitar der kommer ind, lige før Simon synger:
Jeg har delt hver rundtgang op, for nemmere forståelse af tabben.

Optagt inden sang:
e|-------13----------12-------|
B|-13-13----13-13-13----13----|
G|----------------------------|
D|----------------------------|
A|----------------------------|
E|----------------------------|


Hurrah:
e|-------13-------13----13-|-------13-------13----13--|
B|-10-10----10-10----10----|--------------------------|
G|-------------------------|-12-12----12-12----12-----|
D|-------------------------|--------------------------|
A|-------------------------|--------------------------|
E|-------------------------|--------------------------|

e|-------13-------13----13-|-------13----------12-----|
B|-11-11----11-11----11----|-13-13----13-13-13----13--|
G|-------------------------|--------------------------|
D|-------------------------|--------------------------|
A|-------------------------|--------------------------|
E|-------------------------|--------------------------|

e|-------13-------13----13-|-------13-------13----13-|-------13-------13----|
B|-10-10----10-10----10----|-------------------------|-11-11----11-11----11-|
G|-------------------------|-12-12----12-12----12----|----------------------|
D|-------------------------|-------------------------|----------------------|
A|-------------------------|-------------------------|----------------------|
E|-------------------------|-------------------------|----------------------|


.......

Outro:
e|--------------------------------------------------------------------|
B|------6-----6---6-----6-----6----6-----6-----6---6-----6-----5---5--|
G|*--------------------------------------------------5-5---5-5---5---*|
D|*-7-7---7-7---7---5-5---5-5---5----8-8---8-8---8-------------------*|
A|--------------------------------------------------------------------|
E|--------------------------------------------------------------------|

Én af deres bedste sange..
            
Submit corrections

comments powered by Disqus
↑ Back to top | Nephew Tabs for Hurra. Lyrics for acoustic guitar and electric guitar. Tablatures and chords are parodies/interpretations of the original songs. You may use it for private study, scholarship, research or language learning purposes only