» » »

Hospital Tabs (ver.1)

Artists:  A B C D E F G H I J K L M N O P Q R S T U V W X Y Z # 

Hospital Tabs (ver.1)

Nephew
Rating:
4/5 (3 votes)

Hard to play? Try these video lessons and learn fast.
                ----------------------------------------------------------------------------
----------------------------------------------------------------------------

Tuning: Standard.


Åh man sku ha sagt noget
man sku ha bragt noget
man sku ha sagt noget til dig da.
Dengang da vi gik i stå
nord for Holstebro
ud for Oslo:
e|-----------------------------------------------------------------|
B|-----------------------------------------------------------------|
G|-----------------------------------------------------------------|
D|-5-5-5-5-7-7-7-8-8-8-8-8-8-8-8-8---------------5-5-5-5-5-5-5-5-5-|
A|---------------------------------6-6-6-6-8-8-8-------------------|
E|-----------------------------------------------------------------|

e|-----------------------------------------------------------------|
B|-----------------------------------------------------------------|
G|-----------------------------------------------------------------|
D|-5-5-5-5-------5-5-5-5-5-5-5-5-5-8-8-8-8-7-7-7-5-5-5-5-5-5-5-5-5-|
A|---------8-8-8---------------------------------------------------|
E|-----------------------------------------------------------------|


Vers:
e|-----------------------------------|
B|-----------------------------------|
G|*---------------------------------*|
D|*-5-5-5-5-5-5-5-5-5-5-5-5-5-5-5-5-*| x4
A|-----------------------------------|
E|-----------------------------------|

Op til omkvæd:
e|-----------------------------------------------------------------|
B|-----------------------------------------------------------------|
G|-----------------------------------------------------------------|
D|-5-5-5-5-7-7-7-8-8-8-8-8-8-8-8-8---------------5-5-5-5-5-5-5-5-5-|
A|---------------------------------6-6-6-6-8-8-8-------------------|
E|-----------------------------------------------------------------|

e|-----------------------------------------------------------------|
B|-----------------------------------------------------------------|
G|-----------------------------------------------------------------|
D|-----------------------------------------------------------------|
A|---------5-5-5-6-6-6-8-8-8-6-6-6-5-5-5---------------------------|
E|-8-8-8-8-------------------------------8-8-8-6-6-6-5-5-5-3-3-1-1-|


Omkvæd (Intercom støj..):
e|-----------------------------------|
B|-----------------------------------|
G|*---------------------------------*|
D|*---5---5---5---5---5---5---5---5-*| x9
A|-----------------------------------|
E|--3---3---3---3---3---3---3---3----|

Og det er sådanset bare det!
Alle riffs er her som bare bliver gentaget hen i sangen.

TIP: Guitaren bliver spillet med masser af rumklang,
så fyr bare op for den.

Det eneste der sådanset bare er anderledes
er sl*t akkorden i sangen som skal ringe ud:

Outro:
e|-----------------------------------------------------------------|
B|-----------------------------------------------------------------|
G|-----------------------------------------------------------------|
D|-5-5-5-5-7-7-7-8-8-8-8-8-8-8-8-8---------------5-5-5-5-5-5-5-5-5-|
A|---------------------------------6-6-6-6-8-8-8-------------------|
E|-----------------------------------------------------------------|

e|---------------------------------------------------------------------|
B|---------------------------------------------------------------------|
G|---------------------------------------------------------------------|
D|-----------------------------------------------------------------(5)-|
A|---------5-5-5-6-6-6-8-8-8-6-6-6-5-5-5-------------------------------|
E|-8-8-8-8-------------------------------8-8-8-6-6-6-5-5-5-3-3-1-1-(3)-|

- Mere Nephew er på vej.
            
Hard to play? Try these video lessons and learn fast. | Correct




comments powered by Disqus
↑ Back to top | Tablatures and chords are parodies/interpretations of the original songs. You may use it for private study, scholarship, research or language learning purposes only