» » »

Focus On The Sound Bass tabs (ver.1)

Artists:  A B C D E F G H I J K L M N O P Q R S T U V W X Y Z # 

Focus On The Sound Bass tabs (ver.1)

Nephew
Rating:
5/5 (1 vote)

Hard to play? Try these video lessons and learn fast.
                ----------------------------------------------------------------------------
----------------------------------------------------------------------------


Tuning: Standard


Det er syge riffs!

Omkvæd:
G|-------------------------------------------------------------|
D|-------------------------------------------------------------|
A|-------------3-------------------3------5--6-6-6-6-6-6-6-6-8-|
E|-1--------4----------1--------4------------------------------|


Vers: Der er pænt mange variationer!

Rundgang 1:
G|------------------------------------------------------------------------------|
D|-11-11-11-11-11-11-11-11-8-8-8-8-8-8-8-8-3-3-3-3-3/13-13-10/3-3-3-3-3-1--1-//-|
A|------------------------------------------------------------------------------|
E|------------------------------------------------------------------------------|


Rundgang 2:
G|----------------------------------------------------------------------------------|
D|-15-15-15-15-15-15-15-15/3-3-3-3-3-3-3-3/15-15-15-15-15-15-15-15/3-3-3-3-3-3-3-3/-|
A|----------------------------------------------------------------------------------|
E|----------------------------------------------------------------------------------|


Rundgang 3: (magentil 1. rundgang)
G|---------------------------------------------------------------------------|
D|-11-11-11-11-11-11-11-11-8-8-8-8-8-8-8-8-3-3-3-3-3/13-13-10-3-3-3-3-3-1--1-|
A|---------------------------------------------------------------------------|
E|---------------------------------------------------------------------------|




Rundgang 4: Rundgang 4 er i virkeligheden et før-kvæd men tæller som den 4. rundgang i verset.
Der er Distortion og en lille smule rumklang tilføjet her!
G|------10------10-------10--------------5------5-------5------5----|
D|------------------------------------------------------------------|
A|-8-8------8-8-----8-8------8-8-11/-3-3-----3-3----3-3-----3-3--3/-|
E|------------------------------------------------------------------|

G|------10------10-------10--------------5------5-------5------5--------8-----8---|
D|--------------------------------------------------------------------------------|
A|-8-8------8-8-----8-8------8-8-11/-3-3-----3-3----3-3-----3-3--3/6-6----6-6---6-|
E|--------------------------------------------------------------------------------|

Og det er det.. Hvis man kan sige det? :P Det er en svær sang.

Sangen er bygget op som følgende:

Kort tromme intro.
Omkvæd.
Vers.
Omkvæd.
Vers.
Omkvæd.
B-stykke. (Uden bass)
Outro; Omkvæd.
            
Hard to play? Try these video lessons and learn fast. | Correct




comments powered by Disqus
↑ Back to top | Tablatures and chords are parodies/interpretations of the original songs. You may use it for private study, scholarship, research or language learning purposes only