» » »

Danmark Man Dark Bass tabs (ver.1)

Artists:  A B C D E F G H I J K L M N O P Q R S T U V W X Y Z # 

Danmark Man Dark Bass tabs (ver.1)

Nephew
Rating:
0/5 (0 votes)

Hard to play? Try these video lessons and learn fast.
                -------------------------------------------------------------------------------
-------------------------------------------------------------------------------


Tuning: EADG


 Intro
G|-----------|
D|-----------|
A|-----------|
E|-------2/--|


 Verse
G|--------------------------------------------------------------------------|
D|--------------------------------------------------------------------------|
A|--------------------------------------------------------------------------|
E|-2------2------2------2------1h2-2/------2------55--55--77--77--2\-----2--|


 Chorus
G|-------------------------------------------------------------------|
D|-------------------------------------------------------------------|
A|-------------------------------------2-2-222-----------------------|
E|-2-2-222h3-3-3-3-3p2-2-222h3-3-3-3-3---------3-3-3-3-3p2-2-222h3---|


 2nd Verse
G|-------------------------------------------------------------|
D|-------------------------------------------------------------|
A|-------------------------------------------------------------|
E|-2------2------2------2------1h2-2/------2------55--55--77---|

 (1:!5)
G|------------------------------------------|
D|------------------------------------------|
A|------------------------------------------|
E|-55--55--77--77\14/---55--55--77--77--2/--|


 Chorus

 Middle part - No bass until 2:00
G|---------------------|
D|---------------------|
A|---------------------|
E|-55555555-777777777--|


 Chorus - No bass until 2:21
G|-----------------------------------------------------------------------|
D|-----------------------------------------------------------------------|
A|----------------------------------------22222222-----------------------|
E|-1h222222222h333333333p2222222h333333333--------3333333333p2222222h3---|


| /  slide up
| \  slide down
| h  hammer-on
| p  pull-off
| ~  vibrato
| +  harmonic
| x  Mute note
===============================================================================
            
Hard to play? Try these video lessons and learn fast. | Correct




comments powered by Disqus
↑ Back to top | Tablatures and chords are parodies/interpretations of the original songs. You may use it for private study, scholarship, research or language learning purposes only