» » »

Nephew, Bazooka Bass tabs (ver.1)

Artists:  A B C D E F G H I J K L M N O P Q R S T U V W X Y Z # 

Bazooka Bass tabs (ver.1)

Nephew Tabs
 Rating:
4.2/5 (5 votes)
Bazooka lessons Tabs too difficult? Try these video lessons and learn fast
                ----------------------------------------------------------------------------
----------------------------------------------------------------------------


Tuning: Standard.


Total hårdt..


Intro/vers:
G|--------------------------------------------------------------------------------
D|*-------------------------------------------------------------------------------
A|*-10-10-10-10-10-10-10/13-13/10-10-10-10-10-10-10-10/13-13-13-13-13-13-13-13/17-
E|--------------------------------------------------------------------------------

--------------------|
-------------------*|
17///5-5-6-6-5-5-5-*|
--------------------|

Hva’ så? Hvordan er du i stand?
Hva’ så? Hvorfor placere mit mega-sår.

Og JA, det er monster hårde bass akorder.
Aha! (Omkvæd):
G|-------------------------------------------------------------------------|
D|-------------------------------------------------------------------------|
A|-5-5-5-5-5-5-5-5-5-5-5-5-5-5-5-5-8-8-8-8-8-8-8-8-12-12-12-12-12-12-12-12-| x2
E|-3-3-3-3-3-3-3-3-3-3-3-3-3-3-3-3-6-6-6-6-6-6-6-6-10-10-10-10-10-10-10-10-|


==  Vers  ==

== Omkvæd ==

3. Vers med ændring:

G|-------------------------------------------------------------------------------------------------|
D|-------------------------------------------------------------------------------------------------|
A|-10-10-10-10-10-10-10/13-13/10-10-10-10-10-10-10-10/13-13-13-13-13-13-13-13/17-17///5-5-6-6-5-5-5|
E|-------------------------------------------------------------------------------------------------|

G|-------------------------------------------------------------------------------------------------|
D|-------------------------------------------------------------------------------------------------|
A|-10-10-10-10-10-10-10/13-13/10-10-10-10-10-10-10-10/13-13-13-13-13-13-13-13/17-17///5-5-6-6-5-5-5|
E|-------------------------------------------------------------------------------------------------|

G|-----------------------------------------------------------------------------------------------|
D|-----------------------------------------------------------------------------------------------|
A|-----------------------------------------------------------------------------------------------|
E|-3--3--3--3--3--3--3--3--3--3--3--3--3--3--3--3--1--1--1--1--1--1--1--1--1--1--1--1--1--1--1--1|


G|-----------------------------------------------------------------------------------------------|
D|-----------------------------------------------------------------------------------------------|
A|-----------------------------------------------------------------------------------------------|
E|-3--3--3--3--3--3--3--3--3--3--3--3--3--3--3--3--1--1--1--1--1--1--1--1--1---------------------|

== Omkvæd ==


Ændring af hver 2. rundgang når Simon begynder at synge med (Starter 3:24)
G|-------------------------------------------------------------------------|
D|-------------------------------------------------------------------------|
A|-5-5-5-5-5-5-5-5-5-5-5-5-5-5-5-5-8-8-8-8-8-8-8-8-12-12-12-12-12-12-12-12-|
E|-3-3-3-3-3-3-3-3-3-3-3-3-3-3-3-3-6-6-6-6-6-6-6-6-10-10-10-10-10-10-10-10-|

G|-------------------------------------------------------------------------|
D|-------------------------------------------------------------------------|
A|-5-5-5-5-5-5-5-5-5-5-5-5-5-5-5-5-8-8-8-8-8-8-8-8-12-12-12-12-12-12-12-12-|
E|-3-3-3-3-3-3-3-3-3-3-3-3-3-3-3-3-6-6-6-6-6-6-6-6-10-10-10-10-10-10-10-10-|

G|-------------------------------------------------------------------------|
D|-------------------------------------------------------------------------|
A|-5-5-5-5-5-5-5-5-5-5-5-5-5-5-5-5-8-8-8-8-8-8-8-8-12-12-12-12-12-12-12-12-|
E|-3-3-3-3-3-3-3-3-3-3-3-3-3-3-3-3-6-6-6-6-6-6-6-6-10-10-10-10-10-10-10-10-|

G|--------------------------------------------------------------------------|
D|--------------------------------------------------------------------------|
A|-5-5-5-5-5-5-5-5-5-5-5-5-5-5-5-5-13-13-13-13-13-13-13-13-1010101010101010-|
E|-3-3-3-3-3-3-3-3-3-3-3-3-3-3-3-3-11-11-11-11-11-11-11-11-8-8-8-8-8-8-8-8--|

G|-------------------------------------------------------------------------|
D|-------------------------------------------------------------------------|
A|-5-5-5-5-5-5-5-5-5-5-5-5-5-5-5-5-8-8-8-8-8-8-8-8-12-12-12-12-12-12-12-12-|
E|-3-3-3-3-3-3-3-3-3-3-3-3-3-3-3-3-6-6-6-6-6-6-6-6-10-10-10-10-10-10-10-10-|

G|-------------------------------------------------------------------------|
D|-------------------------------------------------------------------------|
A|-5-5-5-5-5-5-5-5-5-5-5-5-5-5-5-5-8-8-8-8-8-8-8-8-12-12-12-12-12-12-12-12-|
E|-3-3-3-3-3-3-3-3-3-3-3-3-3-3-3-3-6-6-6-6-6-6-6-6-10-10-10-10-10-10-10-10-|

G|-------------------------------------------------------------------------|
D|-------------------------------------------------------------------------|
A|-5-5-5-5-5-5-5-5-5-5-5-5-5-5-5-5-8-8-8-8-8-8-8-8-12-12-12-12-12-12-12-12-|
E|-3-3-3-3-3-3-3-3-3-3-3-3-3-3-3-3-6-6-6-6-6-6-6-6-10-10-10-10-10-10-10-10-|

G|---------------------------------------------------------------------------------|
D|---------------------------------------------------------------------------------|
A|-5-5-5-5-5-5-5-5-5-5-5-5-5-5-5-5-13-13-13-13-13-13-13-13-15-15-15-15-15-15-15-15-|
E|-3-3-3-3-3-3-3-3-3-3-3-3-3-3-3-3-11-11-11-11-11-11-11-11-13-13-13-13-13-13-13-13-|


Outro med Distort Synth og Bass (Fra 4:57 og til sl*t):
G|-------------------------------------------------------------------------|
D|-------------------------------------------------------------------------|
A|-5-5-5-5-5-5-5-5-5-5-5-5-5-5-5-5-8-8-8-8-8-8-8-8-12-12-12-12-12-12-12-12-|
E|-3-3-3-3-3-3-3-3-3-3-3-3-3-3-3-3-6-6-6-6-6-6-6-6-10-10-10-10-10-10-10-10-|

G|-------------------------------------------------------------------------|
D|-------------------------------------------------------------------------|
A|-5-5-5-5-5-5-5-5-5-5-5-5-5-5-5-5-8-8-8-8-8-8-8-8-12-12-12-12-12-12-12-12-|
E|-3-3-3-3-3-3-3-3-3-3-3-3-3-3-3-3-6-6-6-6-6-6-6-6-10-10-10-10-10-10-10-10-|

G|--------------------------------------------------------------------------|
D|--------------------------------------------------------------------------|
A|-5-5-5-5-5-5-5-5-5-5-5-5-5-5-5-5-13-13-13-13-13-13-13-13-1010101010101010-|
E|-3-3-3-3-3-3-3-3-3-3-3-3-3-3-3-3-11-11-11-11-11-11-11-11-8-8-8-8-8-8-8-8--|

G|-------------------------------------------------------------------------------------|
D|-------------------------------------------------------------------------------------|
A|-5-5-5-5-5-5-5-5-5-5-5-5-5-5-5-5-13-13-13-13-13-13-13-13/15-15-15-15-15-15-15-15-----|
E|-3-3-3-3-3-3-3-3-3-3-3-3-3-3-3-3-11-11-11-11-11-11-11-11/13-13-13-13-13-13-13-13/15~-|
            
Submit corrections

comments powered by Disqus
↑ Back to top | Nephew Bass for Bazooka. Lyrics for acoustic guitar and electric guitar. Tablatures and chords are parodies/interpretations of the original songs. You may use it for private study, scholarship, research or language learning purposes only