» » »

Nephew, Allein Alene Tabs (ver.1)

Artists:  A B C D E F G H I J K L M N O P Q R S T U V W X Y Z # 

Allein Alene Tabs (ver.1)

Nephew Tabs
Rating:
5/5 (1 vote)
Hard to play? Try these video lessons and learn fast.
                ----------------------------------------------------------------------------
----------------------------------------------------------------------------

Tuning: Standard.


Det her er Nephews mix af Allein Allein fra Polarkreis 18.

e|---------|
B|---------|
G|---------|
D|---------|
A|---8---8-|
E|-6---5---|

Vers:
e|-----------------------------|
B|-----------------------------|
G|*---------------------------*|
D|*---------7-----8-----------*|
A|----5---5-----6-------8---8--|
E|--3-----------------6---5----|

e|-----------------------------------------------------------------------------------------|
B|-----------------------------------------------------------------------------------------|
G|-----------------------------------------------------------------------------------------|
D|-13-13-13--12-12-12--10-10-10--8-8-8--7-7-7--5-5-5--3-3-3--1-1-1--0-0--------------------|
A|-----------------------------------------------------------------------3-3--1-1--0-0-----|
E|--------------------------------------------------------------------------------------3~-|


Omkvæd. Guitaren er mixet ret lavt, men således:
e|-------------------------------------------------------------------------------------------------|
B|-13-13-13-13-13-13-13-13-13-11-11-11-11-11-11-11-11-11-11-11-11-11-11-11-11-10-10-10-10-10-10-10-|
G|-------------------------------------------------------------------------------------------------|
D|-------------------------------------------------------------------------------------------------|
A|-------------------------------------------------------------------------------------------------|
E|-------------------------------------------------------------------------------------------------|

e|-------------------------------------------------------------------------------------------------|
B|-13-13-13-13-13-13-13-13-13-11-11-11-11-11-11-11-11-11-11-11-11-11-11-11-11-10-10-10-10-10-10-10-|
G|-------------------------------------------------------------------------------------------------|
D|-------------------------------------------------------------------------------------------------|
A|-------------------------------------------------------------------------------------------------|
E|-------------------------------------------------------------------------------------------------|

e|-----------------------------------------------------------------------------------------|
B|-8-8-8-8-8-8-8-8-11-11-11-11-11-11-11-11-11-11-11-11-11-11-11-11-10-10-10-10-10-10-10-10-|
G|-----------------------------------------------------------------------------------------|
D|-----------------------------------------------------------------------------------------|
A|-----------------------------------------------------------------------------------------|
E|-----------------------------------------------------------------------------------------|

e|----------------------------------------------------------------------------------|
B|-13-13-13-13-13-13-11-11-11-11-11-11-11-11-11-11-11-11-11-11-10-10-10-10-10-10-10-|
G|----------------------------------------------------------------------------------|
D|----------------------------------------------------------------------------------|
A|----------------------------------------------------------------------------------|
E|----------------------------------------------------------------------------------|


B-stykke/Breakdown: "Wayi-jajaa-jajai-jajaai-jai-jarjarjaar"
e|---------------------------|
B|---------------------------|
G|*--------------------------|
D|*--------------------------|
A|--3-----5-6-----8-8/10~----|
E|---------------------------|

Og det er det :) Alle riffs er her.
            

comments powered by Disqus
↑ Back to top | Nephew Tabs for Allein Alene. Lyrics for acoustic guitar and electric guitar. Tablatures and chords are parodies/interpretations of the original songs. You may use it for private study, scholarship, research or language learning purposes only