» » »

Neon Trees, Sins Of My Youth Tabs (ver.1)

Artists:  A B C D E F G H I J K L M N O P Q R S T U V W X Y Z # 

Sins Of My Youth Tabs (ver.1)

Neon Trees Tabs
 Rating:
4/5 (6 votes)
Sins Of My Youth lessons Tabs too difficult? Try these video lessons and learn fast
                [Intro]

E
I've got these habits that I cannot
C#m
I've got these habits that I can't
B                                   A  B    E
I've got these habits that I cannot break

[Intro for lead guitar]
e--------------------------------|
B--------------------------------|
G--------------------------------|
D---7-6---6----7-6---6---7-6-----|
A-9-----7----9-----7---9-----7---|
E--------------------------------|

e--------------------------------|
B--------------------------------|
G--------------------------------|
D-6-6--6----6-6--6---6-6-6-------|
A--------9---------9-------------|
E--------------------------------|


E                       C#m     B
I found life out on the weekdays
E                           C#m     B
When we would drive to some new city
E                   C#m            B
Call me crazy I was born to make a mess
E                           C#m           B
Would you love me still if I were to confess

[After C#m you can do this]
e-7---7---7---7------------------|
B---9---9---9---9----------------|
G--------------------------------|
D--------------------------------|
A--------------------------------|
E--------------------------------|

C#m          B
That I had a little too much...
e------------------------------------------|
B------------------------------------------|
G------------------------------------------|
D------------------------------------------|
A------------------------------------------|
E-9-9-9-9-9-9-9-9-11-11-11-11-12-12-12-12--|
   A             B
...fun back when I was young!
e------------------------------------------|
B------------------------------------------|
G------------------------------------------|
D------------------------------------------|
A-9-9-9-9-9-9-9-9-11-11-11-11-12-12-12-12--|
E------------------------------------------|

[During chorus you can also do the intro for lead guitar]

E                                   C#m
I've got these habits that I cannot break
                                      B
And as I'm older there is more at stake
                              A             B
Go ahead and call me fake but these are the sins
               E
The sins of my youth
E                              C#m
I break habits just to fall in love
                         B
But I do it on designer drugs
                              A         B
You can call me dangerous but these are the sins
               E
The sins of my youth

E                         C#m    B
All these mainstream made emotions
E                         C#m          B
Made me the boy that they wanted me to be
E                       C#m     B
But when I took down my defenses
E                            C#m             B
For the first time there was something in me, something in me

C#m        B
Hot like a smoking gun
e------------------------------------------|
B------------------------------------------|
G------------------------------------------|
D------------------------------------------|
A------------------------------------------|
E-9-9-9-9-9-9-9-9-11-11-11-11-12-12-12-12--|

A         B
Back when I was young!
e------------------------------------------|
B------------------------------------------|
G------------------------------------------|
D------------------------------------------|
A-9-9-9-9-9-9-9-9-11-11-11-11-12-12-12-12--|
E------------------------------------------|

E                                   C#m
I've got these habits that I cannot break
                                      B
And as I'm older there is more at stake
                              A             B
Go ahead and call me fake but these are the sins
               E
The sins of my youth
E                              C#m
I break habits just to fall in love
                         B
But I do it on designer drugs
                              A         B       E
You can call me dangerous but these are these are


Would you love me still...
e------------------------------------------|
B------------------------------------------|
G------------------------------------------|
D------------------------------------------|
A------------------------------------------|
E-9-9-9-9-9-9-9-9-11-11-11-11-12-12-12-12--|

Would you love me still
e------------------------------------------|
B------------------------------------------|
G------------------------------------------|
D------------------------------------------|
A-9-9-9-9-9-9-9-9-11-11-11-11-12-12-12-12--|
E------------------------------------------|

Would you love me still
e------------------------------------------|
B------------------------------------------|
G------------------------------------------|
D------------------------------------------|
A------------------------------------------|
E-9-9-9-9-9-9-9-9-11-11-11-11-12-12-12-12--|

Would you love...
e------------------------------------------|
B------------------------------------------|
G------------------------------------------|
D------------------------------------------|
A-9-9-9-9-9-9-9-9-11-11-11-11-12-12-12-12--|
E------------------------------------------|

e--------------------------------|
B--------------------------------|
G----------------------9-9-9-9-9-|
D---7-6---6----7-6---6-7-7-7-7-7-|
A-9-----7----9-----7-------------|
E--------------------------------|

E                                   C#m
I've got these habits that I cannot break
                                      B
And as I'm older there is more at stake
                              A             B
Go ahead and call me fake but these are the sins
               E
The sins of my youth
E                              C#m
I break habits just to fall in love
                         B
But I do it on designer drugs
                              A         B       E
You can call me dangerous but these are these are

[The last part is the same as the chorus]
            
Submit corrections

comments powered by Disqus
↑ Back to top | Neon Trees Tabs for Sins Of My Youth. Lyrics for acoustic guitar and electric guitar. Tablatures and chords are parodies/interpretations of the original songs. You may use it for private study, scholarship, research or language learning purposes only