» » »

In The Next Room Bass tabs (ver.2)

Artists:  A B C D E F G H I J K L M N O P Q R S T U V W X Y Z # 

In The Next Room Bass tabs (ver.2)

Neon Trees
Rating:
0/5 (0 votes)

Hard to play? Try these video lessons and learn fast.
                Verse (x6)
G ----------------------------------------------------|
D ----------------------------------------------------|
A ----------5----7--5--7--5---------------------------|
E ---7--5-------------------------7---5---3---5--3--5-|


Pre-Chorus
G ------------------------------------------------------|
D ------------------------------------------------------|
A ------------------------------------7--12--12--12--12-|
E --3--3--3--3--3--3--3--3--5--5--5---------------------|


Chorus
G -----------------------------------------------------------------------|
D -----------------------------------------------------------------------|
A -------------------------------5-5-5-5-5-5-5-5-12-12-12-12-12-12-12-12-|
E 7-7-7-7-7-7-7-7-3-3-3-3-3-3-3-3----------------------------------------|

G -----------------------------------------|
D -----------------------------------------|
A -----------------10-10-10-10-10-10-10-10-|
E -7-7-7-7-7-7-7-7-------------------------|

G -----------------------------------------|
D -----------------------------------------|
A -5-5-5-5-5-5-5-5-12-12-12-12-12-12-12-12-|
E -----------------------------------------|


Verse (x6)
G ----------------------------------------------------|
D ----------------------------------------------------|
A ----------5----7--5--7--5---------------------------|
E ---7--5-------------------------7---5---3---5--3--5-|


Pre-Chorus
G ---------------------------------|
D ---------------------------------|
A ---------------------------------|
E -3-3-3-3-3-3-3-3-5-5-5-5-5-5-5-5-|

G -------------------------------------------------|
D -------------------------------------------------|
A -10-10-10-10-10-10-10-10-12-12-12-12-12-12-12-12-|
E -------------------------------------------------|


Chorus
G -----------------------------------------------------------------------|
D -----------------------------------------------------------------------|
A -------------------------------5-5-5-5-5-5-5-5-12-12-12-12-12-12-12-12-|
E 7-7-7-7-7-7-7-7-3-3-3-3-3-3-3-3----------------------------------------|

G -----------------------------------------|
D -----------------------------------------|
A -----------------10-10-10-10-10-10-10-10-|
E -7-7-7-7-7-7-7-7-------------------------|

G -----------------------------------------|
D -----------------------------------------|
A -5-5-5-5-5-5-5-5-12-12-12-12-12-12-12-12-|
E -----------------------------------------|


Bridge
G ------------------------------------|
D ------------------------------------|
A ------5-5-------------5-5-7-7-10-10-|
E --7-7-----3-3-5-5-7-7---------------|x2

G ---------------------------------|
D ---------------------------------|
A ---------------------------------|
E -3-3-3-3-3-3-3-3-5-5-5-5-5-5-5-5-|

G -------------------------------------------------|
D -------------------------------------------------|
A -10-10-10-10-10-10-10-10-12-12-12-12-12-12-12-12-|
E -------------------------------------------------|

G ---------------------------------|
D ---------------------------------|
A ---------------------------------|
E -3-3-3-3-3-3-3-3-5-5-5-5-5-5-5-5-|


G -------------------------------------------------|
D -------------------------------------------------|
A -10-10-10-10-10-10-10-10-12-12-12-12-12-12-12-12-|
E -------------------------------------------------|



G ------------------------------------------------------------------|
D ------------------------------------------------------------------|
A ------------14--14--14-------------14--14--14--14--14--14--14--14-|
E --7--7--7----------------7--7--7----------------------------------|


Chorus
G -----------------------------------------------------------------------|
D -----------------------------------------------------------------------|
A -------------------------------5-5-5-5-5-5-5-5-12-12-12-12-12-12-12-12-|
E 7-7-7-7-7-7-7-7-3-3-3-3-3-3-3-3----------------------------------------|

G -----------------------------------------|
D -----------------------------------------|
A -----------------10-10-10-10-10-10-10-10-|
E -7-7-7-7-7-7-7-7-------------------------|

G -----------------------------------------|
D -----------------------------------------|
A -5-5-5-5-5-5-5-5-12-12-12-12-12-12-12-12-|
E -----------------------------------------|


Outro

G ----------------------------------------------------------------------------|
D ----------------------------------------------------------------------------|
A ------5-5-------------5-5-7-7-10-10-------5-5-------------5-5-7-7-----------|
E --7-7-----3-3-5-5-7-7---------------7-7-----3-3-5-5-7-7---------5-3-5-7-----|
            
Hard to play? Try these video lessons and learn fast. | Correct




comments powered by Disqus
↑ Back to top | Tablatures and chords are parodies/interpretations of the original songs. You may use it for private study, scholarship, research or language learning purposes only