» » »

Neon Trees, In The Next Room Bass tabs (ver.1)

Artists:  A B C D E F G H I J K L M N O P Q R S T U V W X Y Z # 

In The Next Room Bass tabs (ver.1)

Neon Trees Tabs
Rating:
4/5 (1 vote)
In The Next Room lessons Tabs too difficult? Try these video lessons and learn fast
                to post it up here.

Here's the video link




Main riff

G ------------------------------------------------------------------------|
D ------------------------------------------------------------------------|
A ----------5----7--5--7--5-----------------------------------------------|
E ---7--5-------------------------7---5---3---5--3--5---------------------|

1st Pre Chorus

G -------------------------------------------------------------------|
D -------------------------------------------------------------------|
A ------------------------------------7--12--12--12--12--------------|
E --3--3--3--3--3--3--3--3--5--5--5----------------------------------|

Chorus


G -----------------------------------------------------------------------|
D -----------------------------------------------------------------------|
A -------------------------------5-5-5-5-5-5-5-5-12-12-12-12-12-12-12-12-|
E 7-7-7-7-7-7-7-7-3-3-3-3-3-3-3-3----------------------------------------|


G ----------------------------------------------------|
D ----------------------------------------------------|
A -----------------10-10-10-10-10-10-10-10------------|
E -7-7-7-7-7-7-7-7------------------------------------|

G ----------------------------------------------------|
D ----------------------------------------------------|
A -5-5-5-5-5-5-5-5-12-12-12-12-12-12-12-12------------|
E ----------------------------------------------------|

2nd Pre Chorus

G ----------------------------------|
D ----------------------------------|
A ----------------------------------|
E -3-3-3-3-3-3-3-3-5-5-5-5-5-5-5-5--|

G ---------------------------------------------------|
D ---------------------------------------------------|
A -10-10-10-10-10-10-10-10-12-12-12-12-12-12-12-12---|
E ---------------------------------------------------|


Play Chorus


Bridge


G ------------------------------------------------|
D ------------------------------------------------| x 2
A ------5-5-------------5-5-7-7-10-10-------------|
E --7-7-----3-3-5-5-7-7---------------------------|

G ------------------------------------------------|
D ------------------------------------------------|
A ------------------------------------------------|
E -3-3-3-3-3-3-3-3-5-5-5-5-5-5-5-5----------------|


G ---------------------------------------------------|
D ---------------------------------------------------|
A -10-10-10-10-10-10-10-10-12-12-12-12-12-12-12-12---|
E ---------------------------------------------------|

G ------------------------------------------------|
D ------------------------------------------------|
A ------------------------------------------------|
E -3-3-3-3-3-3-3-3-5-5-5-5-5-5-5-5----------------|


G ---------------------------------------------------|
D ---------------------------------------------------|
A -10-10-10-10-10-10-10-10-12-12-12-12-12-12-12-12---|
E ---------------------------------------------------|



G -------------------------------------------------------------------|
D -------------------------------------------------------------------|
A ------------14--14--14-------------14--14--14--14--14--14--14--14--|
E --7--7--7----------------7--7--7-----------------------------------|


Play Chorus Twice

Outro

G ------------------------------------------------|
D ------------------------------------------------|
A ------5-5-------------5-5-7-7-10-10-------------|
E --7-7-----3-3-5-5-7-7---------------------------|

G ---------------------------------------------------|
D ---------------------------------------------------|
A ------5-5-------------5-5-7-7----------------------|
E --7-7-----3-3-5-5-7-7---------5-3-5-7--------------|
            
Submit corrections

comments powered by Disqus
↑ Back to top | Neon Trees Bass for In The Next Room. Lyrics for acoustic guitar and electric guitar. Tablatures and chords are parodies/interpretations of the original songs. You may use it for private study, scholarship, research or language learning purposes only