» » »

Neon Trees, In The Next Room Tabs (ver.1)

Artists:  A B C D E F G H I J K L M N O P Q R S T U V W X Y Z # 

In The Next Room Tabs (ver.1)

Neon Trees Tabs
 Rating:
3.4/5 (5 votes)
In The Next Room lessons Tabs too difficult? Try these video lessons and learn fast
                Neon Trees
Habits

intro

e|-7-7--------7/0---|
B|-7---7------7/0---|
G|-7-----7----7/0---|
D|-9----------9/0---|
A|-9----------9/0---|
E|-7----------7/0---|

Verse

e|-7-7------------------7/0----------------|
B|-7---7-----------7----7/0-10-8-7-------7-|
G|-7-----7-------7------7/0------------7---|
D|-9-----------9--------9/0----------9-----|
A|-9--------------------9/0----------------|
E|-7--------------------7/0----------------|

Refrain

e|---------|
B|---------|
G|---------|
D|-5-5---7-|
A|-5-5---7-|
E|-3-3---5-|

Chorus

e|-------------------------------------------------------------------------|
B|-------------------------------------------------------------------------|
G|-------------------------------------------------------------------------|
D|-9-9-9-9-9-9-9-9/5-5-5-5-5-5-5-5/12-12-12-12-12-12-12-12/7-7-7-7-7-7-7-7-|
A|-9-9-9-9-9-9-9-9/5-5-5-5-5-5-5-5/12-12-12-12-12-12-10-12/7-7-7-7-7-7-7-7-|
E|-7-7-7-7-7-7-7-7/3-3-3-3-3-3-3-3/10-10-10-10-10-10-10-10/5-5-5-5-5-5-5-5-|x2

e|-7-
B|-7-
G|-7-
D|-9-
A|-9-
E|-7-

repeat verse

repeat refrain twice

repeat chorus

pre-bridge

Rhythm part:

e|----------------------------|
B|----------------------------|
G|----------------------------|
D|-9-9-12-5-5-7-9-9-12-14-5-5-|
A|-9-9-12-5-5-7-9-9-12-14-5-5-|
E|-7-7-10-3-3-5-7-7-10-12-3-3-|x2

Lead part:

e|-11b12-12-12-12-12-12-12-10---|
B|------------------------------|
G|------------------------------|
D|------------------------------|
A|------------------------------|
E|------------------------------|x3

e|-12-10-7------|
B|---------7/9--|
G|--------------|
D|--------------|
A|--------------|
E|--------------|

Bridge
repeat refrain tab x4

Lead played in background after second refrain
e|--------------------------------------------------------------------------|
B|--------------------------------------------------10-7-10-7-10-7-10-10/12-|
G|-------------------------------------11--9--11--9-------------------------|
D|-12-11-9-----12-11-14------12-11-9-7--------------------------------------|
A|--------------------------------------------------------------------------|
E|--------------------------------------------------------------------------|

this part played after the above with more distortion

e|-----------x-x-|
B|-----------x-x-|
G|-----------x-x-|
D|-7-7/9-9/0-x-x-|
A|-7-7/9-9/0-x-x-|
E|-5-5/7-7/0-x-x-|x2

e|-----------------------|
B|-----------------------|
G|-----------------------|
D|-7-7/9-9-9-9-9-9-9-9-9-|
A|-7-7/9-9-9-9-9-9-9-9-9-|
E|-5-5/7-7-7-7-7-7-7-7-7-|

repeat chorus

repeat pre-bridge except last part

Lead new ending

e|-12-10-7---------|
B|---------7/9-7---|
G|---------------9-|
D|-----------------|
A|-----------------|
E|-----------------|

rhythm ends with a Bm barre chord from above

~end~

Add me up on Facebook
not entirely sure on the tab (this was tabbed through listening to the song)
~peace out~
            
Submit corrections

comments powered by Disqus
↑ Back to top | Neon Trees Tabs for In The Next Room. Lyrics for acoustic guitar and electric guitar. Tablatures and chords are parodies/interpretations of the original songs. You may use it for private study, scholarship, research or language learning purposes only