>
 >
Girls And Boys In School

Girls And Boys In School Guitar Tabs

Neon Trees - Girls And Boys In School chords, tabs, tablatures, lyrics

Guitar lessons | Add/correct | Request | Top 50 tabs Artists:  A B C D E F G H I J K L M N O P Q R S T U V W X Y Z 0-9

Girls And Boys In School Guitar Tabs – Neon Trees

CD, Sheet music, Poster

Do you like Girls And Boys In School? Share with your friends now
Bass TabsTabs
Hey guys, just to preface, I know this isn't exactly, 100% how the song is played, but
would be because the song is overflowing with synth, with little to no guitar to be
 Thus, this is how I arranged/transcribed the song for myself, to be played on one 
 You guys can change/play it any way you want, this is just to give a rough outline, with my
thrown in.  All in all, awesome song from an awesome band

Oh, and this my first tab, so try not to be too harsh :D

----------------------------------------------
Intro bit (synth)

E----------------------------------------------------------------------|
A----------------------------------------------------------------------|
D-X-11-11-11-X-11-11-11-X-11-11-11-11-11-11----------------------------|
G----------------------------------------------------------------------|
B----------------------------------------------------------------------|
E----------------------------------------------------------------------|

----------------------------------------------
Verse:

The only chord I'm hearing in the verse is a very affected/processed C#5, so I just
strum it as a sixth string root powerchord with an 8th note feel....

----------------------------------------------
Chorus:

In the chorus, instead of going in and figuring out the chords, I just pick the melody:

E-----------------------------------------------------------|
A-----------------------------------------------------------|
D----------6-6---6-4----------------------------------------|
G-6-6-3-6-3----3----------6-3-6-3-6-3-6---3-----------------|
B---------------------------------------4-------------------|
E-----------------------------------------------------------|

That being said, if you want a chord progression to strum, one that works (not
what they do) would be:


C#m
questions for questions
F#m
I've got a question
G#m
would you ever dance with me like that

----------------------------------------------
End of Second Verse Synth Line (This one's REALLY buried in the mix, listen closely at
just like all your paper cuts..."):

E-9----------------------------------------------------------------------|
A------------------------------------------------------------------------|
D--9-7-6---6-7-6---------------------------------------------------------|
G--------9---------------------------------------------------------------|
B------------------------------------------------------------------------|
E------------------------------------------------------------------------|

----------------------------------------------
Bridge:
The guitar lick after "I said to this end, don't hurt your best friend...

First time around:

E-9-------9-------------|
A-----------------------|
D--13-11----13-11-------|
G-----------------------|
B-----------------------|
E-----------------------|

Second:

E-9-------9------------------------------------|
A----------------------------------------------|
D--11-9----11-9--------------------------------|
G----------------------------------------------|
B----------------------------------------------|
E----------------------------------------------|
-----------------------------------------------|


************************************

| /   slide up
| \   slide down
| h   hammer-on
| p   pull-off
| ~   vibrato
| +   harmonic
| x   Mute note
| b   Bend
| pb  Pre-bend
| br  Bend release
| pbr Pre-bend release
| brb Bend release bend

************************************





Comments


Popular Neon Trees tabs & chords
Animal 3 Bass Tabs
Girls And Boys In School Bass Tabs
Animal Chords
Mad Love Chords
Our War 1 Chords
Wish List Chords
Your Surrender 1 Chords
Animal Tabs
Sleeping With A Friend Tabs
Ericka Ukulele


Song lyrics



↑ Back to top | Tablatures and chords are parodies/interpretations of the original songs. You may use it for private study, scholarship, research or language learning purposes only
© 2014 AZChords.com Contact us | Privacy policy | DMCA | Add/correct tabs | Request tabs | Top 50 tabs