>
 >
Now That I Have You

Now That I Have You Guitar Tabs

Neocolors - Now That I Have You chords, tabs, tablatures, lyrics

Guitar lessons | Add/correct | Request | Top 50 tabs Artists:  A B C D E F G H I J K L M N O P Q R S T U V W X Y Z 0-9

Now That I Have You Guitar Tabs – Neocolors

CD, Sheet music, Poster

Do you like Now That I Have You? Share with your friends now
Tabs
NOW THAT I HAVE YOU
(6stringerís Arrangement)
Standard Tuning: E A D G B e

Intro 1:
|----------0-2-0------------------0-------------2---------0---------------|
|------2s3---0-2--------1-0-----------5-3-2-----3-----2h3-------0---0-----|
|------------0---2----2-----2---1-----------2-4-2---2-------------2-1-----|
|----2--------------4---------2-----------------4-4-----------0-----0-----|
|-0------------0-5------------4-------------2---2-----------2-------2-----|
|------------0----------3-----------0-2-------------------0---------0-----|

I.
|---------0-2-0-----2--------------0--------------------------------------|
|-----2s3---0-2-----2---1-0--0-0-----------222-2-2h3p2-0----0-------------|
|-----------0---2-----2----2------1------2-----------------2-1------------|
|---2-------------4-------------2-----------------------------------------|
|-0-----------0-5--------------4---------------2--------------------------|
|-----------0-----------3------------0-2-----------------0----------------|

|---------0-2-0-----------------------------------------------------------|
|-----2s3---0-2-------1-0--0-0-----0-----22-2----3--------0-----0---------|
|-----------0---2---2----2-------1-----2-----4--2------1----1s2---2---2---|
|---2-------------4------------2---------------4-----0---------------4----|
|-0-----------0-5------------4--------------2------------04---------4-----|
|-----------0---------3--------------2-------------0---------------2------|

|---------------2-0--------------------2---------0----------0-------------|
|-2h3p0----0--------2--------------0--------3---3-----0-----0-------------|
|------4-2-----1-------4-22--2--2-----0----0---0----2--2-1--1-------------|
|-------------2-0-------------0---0-------0--------0--------2-------------|
|-2---------------4---------4--------2--------2---2---------2-------------|
|-----------0---------02--------3--------3-------0-------0--0-------------|

Chorus 1:
|----0-5s7-7----4--2p0-------0-0--------0-5s7-7-------4-7--7-9s7-5----5---|
|-2--2-------5--5-----3-2-3--0-------2--2-------5--5h7---8-8---------55---|
|---2----------4--4----------------4---------------4------9---------6-----|
|------------------0--------------2----2----------66---------------5------|
|-0---------4--------------------x---0---------4---4--------------0-------|
|--------------------------0----4-----------------------0-----------------|
End 1:
|-2--4-5-------------------0-0-------2--4-5s7-7----------|----------------|
|---2----5---2-----2h3p2-2-0-----23---2---------5-5--3-2-|--2-------------|
|--2--------4-------------------2-4----2-------------2--2|-2-----1--------|
|00--------6---4p2-------------2--5--0---------------4---|4----2-2--------|
|---------4--------2----------0----------------4-----2---|----------------|
|-------------2-----------0------------------------2-----|---0-----0------|

Intro 2:
|-------0-2-0---------------|
|----2s3--0-2-2-----1-0-----|
|-2-------0---2---2-----2-2-|
|---2-----------4---------2-|
|-0---------0-5-----------0-|
|---------0---------3-------|

II.
|----0-2-0----------------------------------------------------------------|
|-2h3--0-2-------1-0---0-0-----0---5-3p2-2-3-2-0-----0---0----------------|
|----------2---2-----2-------1---------------------2---1------------------|
|------------4-------------2----------------------------------------------|
|--------0-5-------------4---------------2--------------------------------|
|------0---------3---------------2---------------0------------------------|

|--------0-2-0---------------------------------------0--------------------|
|----2s3---0-2-----1-0---0-0-----0--5-3-2-2h3p2-0---0---------------------|
|----------0-----2-----2-------1--------2----------2--1-------------------|
|---2----------4-------------2----------4---------------------------------|
|-0----------0-------------4------------2---------------------------------|
|----------0-------3---------------2--------------0-----------------------|

|---------------------------2-0--------------------2--------------------*-|
|--0----0------2h3p2----0-------2--------------0-------3----------0-----*-|
|----1s2-2---2------4-2------------4-22--2--2-----0---0----0----2--2-1s8--|
|-----------4---------------0-----------2-0---0------0----0----0----------|
|-04-------4---2--------------4------------------2-------2----2-----------|
|---------2---------------0-------02--------3-------3--------0-------0----|
(Repeat Chorus use end 2 then proceed to bridge)
        End 2:
|------0-----------0-2---0---|
|---2------0------2--0---2---|
|--2-----2---2--2----0-0-0-0-|
|-2------------2-------------|
|------------0-----------0---|
|----0---------------0-------|

Bridge:
|---2-2-2s4----4--4-5-5s7---------------------0-0-----------0-------------|
|---2-2--------5--5-5-5s7-5-------5-3-2---3---0---------2-2---2-----------|
|---2--------4----4-----------------2---2-------------2---2-----0---------|
|-0--------0--------------------2---4---------------2-----2---------------|
|----------------04-----------4-----2-------------0-------0---------------|
|---------------------------2---------------0-----------------3-----------|

|---5-5---7-------7-8-8s10-----------------------5-------1-------1--------|
|---5-5---8-----0-8-8-8s10-8---5---6----6----------6----3--3---3----------|
|---5---------7---7--------------5--------5-5---5---5--2----2--2----------|
|-3---------9--------------------------7---7---7---------------x----------|
|-------0-8-------7----------0-------5--------5-------3-------33----------|
|-------------------------------------------------------------------------|


|3------3-----3--4---------4-|
|------3----3----4----4----4-|
|----5----4---------6--6-5-5-|
|--------------------------4-|
|---5--------------6-------6-|
|-3-------3-----04-------4-4-|

Chorus 2:
|---------9-10-----8--6---------4-4----------------------|
|-------9------9---9-----7-6-7---------------------------|
|-10-------------8------6--------------5-----------------|
|-----11---------------8--------------6------------------|
|---11--------8------09----------------------------------|
|09---------------------------4-----4--------------------|

|---------9-10----------8-11----11-13s11-9------9--------|
|-------9------9----9h11--12----12--------------9--------|
|-10----10----------8-----11--11--------------10---------|
|-----11---------10-10------13---------------9-----------|
|---11--------8-----8-----11---------------11------------|
|09---------------------------------------9--------------|

|-----------9--------------------4-4---------------------|
|-11-----13---9----6-----6h7p6-7-4------6-4--------------|
|------11---------8--------------------6--4--------------|
|----11---------10---8p6--------------6---4--------------|
|09------------8---------6-----------4----4--------------|
|-------------------6-----------4------------------------|

|----------9-11------------------------------------------|
|--11----13-----9-9--7-6----6---4------------------------|
|------11------------6--6--6---6-5-----------------------|
|----11--------------8----8------------------------------|
|0-9-----------8-----6-----------------------------------|
|------------------6---------4---4-----------------------|

|----------9-10-----8---6----------4---------------------|
|--------9------9---8---7-9-7-6-7----4-------------------|
|--10----10---------------6-6--------4-------------------|
|------11---------10--------------6--4-------------------|
|----11--------8------0-6--------------------------------|
|0-9-----------------------------4-----------------------|

|--------9-11--------------------------------------------|
|11----13-----9--7-6----6---4-4--------------------------|
|----11----------6--6--6---6--5--------------------------|
|--11------------8----8----------------------------------|
|9-----------8---6--------6------------------------------|
|--------------6---------4----4--------------------------|

Outro:
|--------4-6-4-----------4--------------------------------|
|--6--6h7--4-6-------5-4-4--------------------------------|
|----------4-4-6---6-----5--------------------------------|
|----6-----------8-------6--------------------------------|
|x-4---------4-9---------4--------------------------------|
|----------4---------7---4--------------------------------|

Thatís all folks...This tab may be different from the original, so sorry for the
please feel free to send any comments and corrections to my e-mail... violent reactions 
be
hehehe tao lang po... at sorry kung natagalan ang pag-post ko ng mga tabs... so enjoy 
gudluck...





Comments


Popular Neocolors tabs & chords
Pain In My Heart Bass Tabs
Hold On Chords
Kasalanan Ko Ba Chords
Kasalanan Ko Ba 1 Chords
Tuloy Pa Rin Chords
Tuloy Pa Rin 1 Chords
Hold On Ukulele
Kasalanan Ko Ba Ukulele
Tuloy Pa Rin Ukulele


Song lyrics



↑ Back to top | Tablatures and chords are parodies/interpretations of the original songs. You may use it for private study, scholarship, research or language learning purposes only
© 2014 AZChords.com Contact us | Privacy policy | DMCA | Add/correct tabs | Request tabs | Top 50 tabs