» » »

99 Red Balloons Tabs (ver.1)

Artists:  A B C D E F G H I J K L M N O P Q R S T U V W X Y Z # 

99 Red Balloons Tabs (ver.1)

Nena
Rating:
5/5 (5 votes)

Tabs too difficult? Try these video lessons and learn fast.
                On: 10/03/08

Why do I tab songs like this? Because I can... The 80s were ace!!!

E              F#m
You and I in a little toy shop
      A                        B
Buy a bag of balloons with the money we've got
E                    F#m
Set them free at the break of dawn
     A           B
'Til one by one, they were gone
E             F#m
Back at base, bugs in the software
A                  B
Flash the message "Something's out there"
E               F#m         A    B
Floating in the summer sky, 99 red balloons go by

[Instrumental Intrelude]:

Keyboard:
e|-----------|-------------|
B|-----------|-------------|
G|-----------|-------------|
D|-----------|-------------|
A|-7-7---7---|-7-7---7-----|
E|-----9---9-|-----9---9-0-| x4

...then...
e|---------------------|---------------------|
B|---------------------|---------------------|
G|---------------------|---------------------|
D|---------------------|---------------------|
A|-7-7---7---9br-7-7---|-7-7---7-------------|
E|-----9---9---------9-|-----9---9-7-7-7-7-9-| x4

E  F#m          A               B
99 red balloons floating in the summer sky
E                 F#m
Panic bells, it's red alert
        A                   B
There's something here from somewhere else
    E           F#m              A            B
The war machine springs to life; opens up one eager eye
E           F#m              A  B
Focusing it on the sky where 99 red balloons go by

Keyboard:
e|-------------------------------------------------|
B|-------------------------------------------------|
G|-11-13----13-11-------13-11-------------------11-|
D|-------14-------14-11-------14-14-11-14-11-14----|
A|-------------------------------------------------|
E|-------------------------------------------------|

e|----------------------------------------------------|
B|----------------------------------------12----------|
G|----11-13----13-11-------13-11-------------13-11----|
D|-14-------14-------14-11-------14-14-11----------14-|
A|----------------------------------------------------|
E|----------------------------------------------------|

99 Decision Street, 99 ministers meet
To worry, worry, super-scurry; call the troops out in a hurry
"This is what we've waited for, this is it boys, this is war"
The president is on the line as 99 red balloons go by

[Instrumental Interlude]

99 Knights of the air ride super-high-tech jet fighters
Everyone's a Silverhero, everyone's a Captain Kirk
With orders to identify, to clarify and classify
Scramble in the summer sky as 99 red balloons go by
As 99 red balloons go by

99 dreams I have had, in every one a red balloon
It's all over and I'm standin' pretty, in this dust that was a city
If I could find a souvenier just to prove the world was here
And here is a red balloon I think of you and let it go
            
Tabs too difficult? Try these video lessons and learn fast.


comments powered by Disqus
↑ Back to top | Tablatures and chords are parodies/interpretations of the original songs. You may use it for private study, scholarship, research or language learning purposes only