>
 >
Waiting For You

Waiting For You Guitar Tabs

Nemisis - Waiting For You chords, tabs, tablatures, lyrics

Guitar lessons | Add/correct | Request | Top 50 tabs Artists:  A B C D E F G H I J K L M N O P Q R S T U V W X Y Z 0-9

Waiting For You Guitar Tabs – Nemisis

CD, Sheet music, Poster

Do you like Waiting For You? Share with your friends now
Tabs
Gtr. I (ashley s.)         (Lead enters 2nd time)                   
        e e e e e e e e          e e e  e e e e  e e e  e e e e    e e e    
||--------------0--------||-||------------0---------------0------|----------
||----------3-------3----||-||----------0---0-----------0---0----|----------
||4*------2---2---2---2-*||-||7*---------------------------------|------6---
||4*----0---------------*||-||4*-----11-------11-----11-------11-|---5------
||-----------------------||-||-----9---------------9-------------|----------
||-----------------------||-||---7---------------7---------------|-3--------
                                                                                

e e e e e e e e e e e   e e e e e e e e e e e e e e   e e e e e e e e e e   
--0-------------0-----|-----------------------------|-----------------------
0---0---------0---0---|---------0-------------0-----|-----------------------
------6-----6-------6-|-------0---0---------0---0---|---------0-------------
----------5-----------|-----4-------4-----4-------4-|-----4-------4-----4---
----------------------|---2-------------2-----------|---4---5---5-----4-----
--------3-------------|-0-------------0-------------|-2-------------2-------
                                                                                

e e e e     e e e e e e e e +H    e e e e e e e e +H    e e e e e e e e +H    
---------||---------------------|---------------------|-------3-------------
---------||-------3---3---------|-------3---3---------|-----------0---3-(3)-
--0-----*||-----0---0-----0-(0)-|-----0---0-----0-(0)-|-----0---0---0-------
------4-*||---4---------4-------|---4---------4-------|---0-----------------
5---5----||-2-------------------|-0-------------------|---------------------
---------||---------------------|---------------------|-3-------------------
                                                                                
  e e e e e e e e +H      e e e e e e e e   e e e e e e e e                   
|-------0-------------|-------------------|-----------------|
|-----------3---------|---------3---3-----|-------3---3-----|
|---------------0-(0)-|4*-----0---0-----5-|-----0---------0-|
|-----2---------------|4*---4---------4---|---4-----4---4---|
|---2-----------------|---2---------------|-0---------------|
|-0-------0---0-------|-------------------|-----------------|
                                                                                

  e e e e e e e e   e e e e e e e e   e e e e e e e e     
|-------3---------|-------0---------|-----------------|
|-----------0---3-|-----------3-----|-------0-------0-|
|-----0---0---0---|---------------0-|-----0-------0---|
|---0-------------|-----2-----------|---4-------4-----|
|-----------------|---2-------------|-2-------4-------|
|-3---------------|-0-------0---0---|-----------------|





Comments


Popular Nemisis tabs & chords
Celena Tabs
Hey Squiz Tabs
Highskool Psycho Tabs
I Can See Through You Tabs
I Will Always Do Tabs
Linger Tabs
Making You Cry Tabs
Peter Brady Tabs
Pinkhouse Tabs
Sammys Song Tabs


Song lyrics



↑ Back to top | Tablatures and chords are parodies/interpretations of the original songs. You may use it for private study, scholarship, research or language learning purposes only
© 2014 AZChords.com Contact us | Privacy policy | DMCA | Add/correct tabs | Request tabs | Top 50 tabs