» » »

Nemisis, The Killing Words Tabs (ver.1)

Artists:  A B C D E F G H I J K L M N O P Q R S T U V W X Y Z # 

The Killing Words Tabs (ver.1)

Nemisis Tabs
 Rating:
4/5 (4 votes)
The Killing Words lessons Tabs too difficult? Try these video lessons and learn fast
1
                Intro  P.M.                                                               
||----------------------------------------------|------------------------------
||----------------------------------------------|------------------------------
||*---------------------4-----------------------|------------------------------
||*------4--6--7-----4-----x--4--7-----6-----6--|------------------------------
||----4-----------------------------------7-----|------------------------------
||----------------------------------------------|------------------------------
                                                                               

                    all through out the song                                                           
------------------------------------------|------------------------------------
------------------------------------------|------------------------------------
------------------4-----------------------|------------------------------------
---4--6--7-----4-----x--4--7-----6-----6--|------------------------------------
0-----------------------------------7-----|------------------------------------
------------------------------------------|------------------------------------
                                                                               

P.M.                                                                           
-------------------------------------------|-----------------------|-----------
-------------------------------------------|-----------------------|-----------
-------------------4-----------------------|--6--4--------9-----8--|-----------
----4--6--7-----4-----x--4--7-----6-----6--|--6--4--------9-----8--|-----------
-4-----------------------------------7-----|--4--2--------7-----6--|-----------
-------------------------------------------|-----------------------|-----------
            
Submit corrections

comments powered by Disqus
↑ Back to top | Nemisis Tabs for The Killing Words. Lyrics for acoustic guitar and electric guitar. 1 Tablatures and chords are parodies/interpretations of the original songs. You may use it for private study, scholarship, research or language learning purposes only