» » »

Nemisis, Take Hold Of The Flame Tabs (ver.1)

Artists:  A B C D E F G H I J K L M N O P Q R S T U V W X Y Z # 

Take Hold Of The Flame Tabs (ver.1)

Nemisis Tabs
Rating:
0/5 (0 votes)
Take Hold Of The Flame lessons Tabs too difficult? Try these video lessons and learn fast
                e:--------0---------------|--------0--0---------------|
B:--------0---------------|--------0-----0--0"1--0----|
G:--------2---------------|--------2------------------|
D:-----2--2---------------|------2-2------------------|
A:0-------0---------------|0-------0------------------|
E:------------------------|-------------------------0-|



e:---------------------------0--------|-------0-----0-----|
B:-------------------1---------1------|-------3-------3---|
G:---------2------2----2---------2---0|-------4---------0-|
D:------3------3-------------------3--|----5--5-----------|
A:---3--------------------------------|-------------------|
E:1-----------------------------------|/3-----------------|





e:-------------------------|----------0--0--------|-------------------------|
B:-------0---------0-------|----------0-----0-----|---------------------3---|
G:----2---------4----------|-------2--2--------0--|--------0---------0------|
D:/3--------/5--------3--2-|----2-----2-----------|-----2---------0---------|
A:-------------------------|-0--------0-----------|-/3--------/2----------0-|
E:-------------------------|----------------------|-------------------------|


                         
                         
        continue........
e:------0---------------|
B:------0---------------|
G:---2--2---------------|
D:-2----2---------------|
A:------0---------------|
E:----------------------|





e:-------------------------|--------------------------|-------------------|
B:-------------------------|--------------------------|-------5--5----5---|
G:-------------------------|--------------------------|[2]----4--4----4--2|
D:-------------------------|----------------------2---|[2]----2--2----2--2|
A:-------------------------|---5--5--5--5--3--5---0---|[0]---------------0|
E:-3--3--3--3--3--3--3--3--|3--3--3--3--3--1--3-------|-------------------|
            

comments powered by Disqus
↑ Back to top | Nemisis Tabs for Take Hold Of The Flame. Lyrics for acoustic guitar and electric guitar. Tablatures and chords are parodies/interpretations of the original songs. You may use it for private study, scholarship, research or language learning purposes only