» » »

Sunshines Everywhere Else But England Tabs (ver.1)

Artists:  A B C D E F G H I J K L M N O P Q R S T U V W X Y Z # 

Sunshines Everywhere Else But England Tabs (ver.1)

Nemisis
Rating:
0/5 (0 votes)

Hard to play? Try these video lessons and learn fast.
                Chords Used :       F#  C#  Eb  B
                e|------------------|
                B|------------------|
                G|-11---------------|
                D|-11--11--13---9---|
                A|--9--11--13---9---|
                E|------9--11---7---|

Intro: F#, C#     X 2

Verse: F#, C#, F#, C#, Eb, C#, B, C#, Eb, C#, B, B, C#, C#     X 2

Chorus: B, B, F#, F#, C#, C#, F#, F#, B, B, F#, F#, C#, C#, F#, C#, F#

Verse: Same as first verse exept you only do the line once

Chorus: Same as previous chorus

Bridge: F#, C#, Eb, B   X 10 (first 4 times are palm muted)

Ending: One guitar continues the F#, C#, Eb, B  pattern while the 
        other guitar does this: 

     e|----------------------------------|
     B|----------------------------------|
     G|----------------------------------|
     D|----------------------9-----------|       X 8
     A|-9-9-9-11-11-11-13-13---13-11-----|
     E|----------------------------------|
          and after that:

     e|----------------|
     B|----------------|
     G|----------------|
     D|----------------| X a whole bunch of times until the song ends.
     A|-8-9-9-9-9-9----|
     E|----------------|
            
Hard to play? Try these video lessons and learn fast. | Correct




comments powered by Disqus
↑ Back to top | Tablatures and chords are parodies/interpretations of the original songs. You may use it for private study, scholarship, research or language learning purposes only