» » »

Nemisis, Punk Song Tabs (ver.1)

Artists:  A B C D E F G H I J K L M N O P Q R S T U V W X Y Z # 

Punk Song Tabs (ver.1)

Nemisis Tabs
 Rating:
4/5 (4 votes)
Punk Song lessons Tabs too difficult? Try these video lessons and learn fast
1
                I dont have the actual anount of times you strum it but you get the idea
e|---------------------------------------------------------------------------|
B|---------------------------------------------------------------------------|
G|-------------------------------11-11-11-11---------------------------------|
D|------------11-11----9-9-9-9---9--9--9--9----------------------------------|
A|--9-9-9-9---9--9-----7-7-7-7---7--7--7--7----------------------------------|
E|--7-7-7-7------------------------------------------------------------------|

e|--------------------------------------------------------------------------------------|
B|--play this palm muted first then normal the socond time------------------------------|
G|--------------------------------------------------------------------------------------|
D|-----------9-9-9-9-----------11-11-11-11-----------9-9-9-9-------11-11--9-9--11-11----|
A|--9-9-9-9--7-7-7-7--9-9-9-9--9--9--9--9---9-9-9-9--7-7-7-7--9-9--9--9---9-9--9--9-----|
E|--7-7-7-7-----------7-7-7-7---------------7-7-7-7-----------7-7---------7-7-----------|

e|----------0---------------------------0-------------------------------------|
B|----------0---------------------------0-------------7-----------------------|
G|------1-------4-------------------1-------4---------6-----------------------|
D|--6---2-------4---4pm---------6---2-------4---4pm---4-----------------------|
A|--6---2-------2---4pm---------6---2-------2---4pm---------------------------|
E|--4---0-----------2pm--then---4---0-----------2pm---------------------------|

    the only thing that matters....
e|---------------------------------------------------------------------------|
B|---------------------------------------------------------------------------|
G|---------------------------------------------------------------------------|
D|---------------9--8--6--4--------------------------------------------------|
A|---9--8--6--4--7--6--4--2--------------------------------------------------|
E|---7--6--4--2--------------------------------------------------------------|
            
Submit corrections

comments powered by Disqus
↑ Back to top | Nemisis Tabs for Punk Song. Lyrics for acoustic guitar and electric guitar. 1 Tablatures and chords are parodies/interpretations of the original songs. You may use it for private study, scholarship, research or language learning purposes only