>
 >
Notion

Notion Guitar Tabs

Nemisis - Notion chords, tabs, tablatures, lyrics

Guitar lessons | Add/correct | Request | Top 50 tabs Artists:  A B C D E F G H I J K L M N O P Q R S T U V W X Y Z 0-9

Notion Guitar Tabs – Nemisis

CD, Sheet music, Poster

Do you like Notion? Share with your friends now
Tabs
Intro pt.1
E------------------------------------------------------------------------
B------------------------------------------------------------------------
G------------------------------------------------------------------------
D-7----------------------------------------------------------------------
A-7----------------------------------------------------------------------
E-5----------------------------------------------------------------------

Intro pt.2
E------------------------------------------------------------------------
B-5-3-2-3-2-5-3-2-3-2-5-3-2-3-2-3-2-2-14-11--9--7------------------------
G-2-2-2-2-2-2-2-2-2-2-2-2-2-2-2-2-2-2-14-11--9--7------------------------
D-------------------------------------14-11--9--7------------------------
A-------------------------------------12--9--7--5------------------------
E------------------------------------------------------------------------

E------------------------------------------------------------------------
B-5-3-2-3-2-5-3-2-3-2-5-3-2-3-2-3-2-2--------7---------------------------
G-2-2-2-2-2-2-2-2-2-2-2-2-2-2-2-2-2-2--------7---------------------------
D--------------------------------------7-4-2-7---------------------------
A--------------------------------------7-4-2-5---------------------------
E--------------------------------------5-2-0-----------------------------

Verse
E------------------------------------------------------------------------
B------------------------------------------------------------------------
G----6--7--------7-------------------------------------------------------
D-7--6--7--7--4--7--7----------------------------------------------------
A-7--4--5--7--4--5--7----------------------------------------------------
E-5--------5--2-----5----------------------------------------------------
used to be that i knew exactly where i stood with you..

Pre-chorus
E------------------------------------------------------------------------
B------------------------------------------------------------------------
G----7--------7--9--7--6--------7--9-------------------------------------
D-4--7--7--4--7--9--7--6--7--4--7--9-------------------------------------
A-4--5--7--4--5--7--5--4--7--4--5--7-------------------------------------
E-2-----5--2--------------5--2-------------------------------------------
to say it was nothing would be a lie...

Chorus
E------------------------------------------------------------------------
B-----------------------------------14-11--9--7--------------------------
G-----6-----7-----6-----7--------7--14-11--9--7--------------------------
D--7--6--4--7--7--6--4--7--7--2--7--14-11--9--7--------------------------
A--7--4--4--5--7--4--4--5--7--2--5--12--9--7--5--------------------------
E--5-----2-----5-----2-----5--0------------------------------------------
Did i mean anything to you...





Comments


Popular Nemisis tabs & chords
6 Am Tabs
Anybody Listening Tabs
Celena Tabs
Fathead Tabs
Hanging Around Tabs
Hey Squiz Tabs
I Keep On Trying Tabs
I Wanna Be Naked Tabs
I Wanna Be With U Tabs
One Step Beyond Tabs


Song lyrics



↑ Back to top | Tablatures and chords are parodies/interpretations of the original songs. You may use it for private study, scholarship, research or language learning purposes only
© 2014 AZChords.com Contact us | Privacy policy | DMCA | Add/correct tabs | Request tabs | Top 50 tabs