» » »

My Song Tabs (ver.1)

Artists:  A B C D E F G H I J K L M N O P Q R S T U V W X Y Z # 

My Song Tabs (ver.1)

Nemisis
Rating:
0/5 (0 votes)

Hard to play? Try these video lessons and learn fast.
                e|--------------------------------------------------------------------|
B|--------------------------------------------------------------------|
G|-------9------------------------------------------------------------|
D|----11-9-7-9--------------------------------------------------------|
A|----11-7-7-9--------------------------------------------------------|
E|----9----5-7--------------------------------------------------------|

Chorus
e|--------------------------------------------------------------------|
B|--------------------------------------------------------------------|
G|--------------------------------------------------------------------|
D|----7-2-7-2-7-9-----------------------------------------------------|
A|----7-2-7-2-7-9-----------------------------------------------------|
E|----5-0-5-0-5-7-----------------------------------------------------|
e|--------------------------------------------------------------------|
B|--------------------------------------------------------------------|
G|-------9------------------------------------------------------------|
D|----11-9-7-9--------------------------------------------------------|
A|----11-7-7-9--------------------------------------------------------|
E|----9----5-7--------------------------------------------------------|

Chorus
e|--------------------------------------------------------------------|
B|--------------------------------------------------------------------|
G|--------------------------------------------------------------------|
D|----7-2-7-2-7-9-----------------------------------------------------|
A|----7-2-7-2-7-9-----------------------------------------------------|
E|----5-0-5-0-5-7-----------------------------------------------------|
            
Hard to play? Try these video lessons and learn fast. | Correct




comments powered by Disqus
↑ Back to top | Tablatures and chords are parodies/interpretations of the original songs. You may use it for private study, scholarship, research or language learning purposes only