>
 >
My Rights

My Rights Guitar Tabs

Nemisis - My Rights chords, tabs, tablatures, lyrics

Guitar lessons | Add/correct | Request | Top 50 tabs Artists:  A B C D E F G H I J K L M N O P Q R S T U V W X Y Z 0-9

My Rights Guitar Tabs – Nemisis

CD, Sheet music, Poster

Do you like My Rights? Share with your friends now
Tabs
Key:
  h  hammer on
  /  slide up
  \  slide down
  ~  vibrato 


<normal tuning>
                                     INTRO
e:---------------------------------------------------------------------------|
B:10--h12--12--12-12--10--h12--12-12--10--h12--12-12-------------------------|
G:---------------------------------------------------------------------------|
D:---------------------------------------------------------------------------|
A:---------------------------------------------------------------------------|
E:---------------------------------------------------------------------------|
  (Play 4X, 3rd time around rythym guitar comes in RIFF 1 played slowly)


e:---------------------------------------------------------------------------|
B:-----10--h12--12--12-12-12-12-12-12-12--12--h14--14--14-14-14-14-14-14-14--|
G:---------------------------------------------------------------------------|
D:---------------------------------------------------------------------------|
A:---------------------------------------------------------------------------|
E:---------------------------------------------------------------------------|
  


e:---------------------------------------------------------------------------|
B:14--h15--15--15-15-15-15-15-15-15--15--14--12--15--14--12--\12--10--h12--12|
G:---------------------------------------------------------------------------|
D:---------------------------------------------------------------------------|
A:---------------------------------------------------------------------------|
E:---------------------------------------------------------------------------|



e:---------------------------------------------------------------------------|
B:--12-12-12-12-12-12-12--12--h14--14--14-14-14-14-14-14-14--14--h15--15--15-|
G:---------------------------------------------------------------------------|
D:---------------------------------------------------------------------------|
A:---------------------------------------------------------------------------|
E:---------------------------------------------------------------------------|


                                                       hold last note!!     
e:-----------------------------------------------------------------------|
B:15-15-15-15-15-15-15-14-12-15-14-12-15-14-12-15-14-12--\10--h12~~~~----|
G:-----------------------------------------------------------------------|
D:-----------------------------------------------------------------------|
A:-----------------------------------------------------------------------|
E:-----------------------------------------------------------------------|
  After intro ends pause then go right into RIFF 1


(RIFF 1)
e:-4--4--4--4----4--4--4----5--5--5--5----2--2--2----------------------------------|
B:-4--4--4--4----4--4--4----5--5--5--5----2--2--2----------------------------------|
G:-4--4--4--4----4--4--4----5--5--5--5----2--2--2----------------------------------|
D:-4--4--4--4----4--4--4----5--5--5--5----2--2--2----------------------------------|
A:-2--2--2--2----4--4--4----5--5--5--5----2--2--2----------------------------------|
E:---------------2--2--2----3--3--3--3-------------------------------------------|





Comments


Popular Nemisis tabs & chords
6 Am Tabs
Bleeding Tabs
Breaking Point Tabs
Celena Tabs
Making You Cry Tabs
My Song Tabs
Outside Of You Tabs
Reasons Tabs
Stupid Girl Tabs
The Killing Words Tabs


Song lyrics



↑ Back to top | Tablatures and chords are parodies/interpretations of the original songs. You may use it for private study, scholarship, research or language learning purposes only
© 2014 AZChords.com Contact us | Privacy policy | DMCA | Add/correct tabs | Request tabs | Top 50 tabs