» » »

Linger Tabs (ver.1)

Artists:  A B C D E F G H I J K L M N O P Q R S T U V W X Y Z # 

Linger Tabs (ver.1)

Nemisis
Rating:
0/5 (0 votes)

Hard to play? Try these video lessons and learn fast.
                verses: A, E, G, D (all palm muted) 

VERSE: 
e|-----------------------------------------------------------| 
B|-----------------------------------------------------------| 
G|------------9-------------7--------------------------------| 
D|-----7------9------5------7--------------------------------| 
A|-----7------7------5------5--------------------------------| 
E|-----5-------------3---------------------------------------| 

Chorus part A, E, G, D (no palm muting needed, so you can rest your hand :) ) 

CHORUS: 
e|-----------------------------------------------------------| 
B|-----------------------------------------------------------| 
G|------------9-------------7--------------------------------| 
D|-----7------9------5------7--------------------------------| 
A|-----7------7------5------5--------------------------------| 
E|-----5-------------3---------------------------------------| 

verses: A, E, G, D (all palm muted) 

VERSE: 
e|-----------------------------------------------------------| 
B|-----------------------------------------------------------| 
G|------------9-------------7--------------------------------| 
D|-----7------9------5------7--------------------------------| 
A|-----7------7------5------5--------------------------------| 
E|-----5-------------3---------------------------------------| 

Chorus part A, E, G, D (no palm muting needed, so you can rest your hand :) ) 

CHORUS: 
e|-----------------------------------------------------------| 
B|-----------------------------------------------------------| 
G|------------9-------------7--------------------------------| 
D|-----7------9------5------7--------------------------------| 
A|-----7------7------5------5--------------------------------| 
E|-----5-------------3---------------------------------------|
            
Hard to play? Try these video lessons and learn fast. | Correct




comments powered by Disqus
↑ Back to top | Tablatures and chords are parodies/interpretations of the original songs. You may use it for private study, scholarship, research or language learning purposes only