» » »

Nemisis, Liberation Tabs (ver.1)

Artists:  A B C D E F G H I J K L M N O P Q R S T U V W X Y Z # 

Liberation Tabs (ver.1)

Nemisis Tabs
 Rating:
4/5 (4 votes)
Liberation lessons Tabs too difficult? Try these video lessons and learn fast
1
                Intro
E----------0-------------------------------------------------
B---3--------3----------3------3-----------------------------
G-----0--------0----------0------0---------------------------
D------------------------------------------------------------
A-3------3--------3-2----------------------------------------
E---------------------3------3-------------------------------

E----------0-------------------------------------------------
B---3--------3----------3------3-----------------------------
G-----0--------0----------0------0---------------------------
D------------------------------------------------------------
A-3------3--------3-2----------------------------------------
E---------------------3------3-------------------------------

E---------------------------0--------------------------------
B-----1-----------1-----------1------------------------------
G-------0-----------0-----0-----0----------------------------
D---------------------0h2------------------------------------
A-0-0-----0-0-2-3--------------------------------------------
E------------------------------------------------------------

E------------------------------------------------------------
B--------------------------------------2---------------------
G-------------------2----------0-----0-2---------------------
D---------0-------0-2--------2-----0---2---------------------
A-------2---2---0---2--0-2-3-----2-----0---------------------
E-0-2-3-------2-----0----------------------------------------

Part 1

E----------------------------------0-------------------------
B-----------------3-3--------------1-------------------------
G-0--0--4p2p0-----2-2--4p2p0-------0-------------------------
D-0--0--------2p0-0-0---------2p0--2-------------------------
A-2--2-----------------------------3-------------------------
E-3--3-------------------------------------------------------

Part 2
This riff has a bunch of different lead parts.  I'll just tab a couple
of them.

E---------3p2p0----------------------------------------------
B---4-5-7-------3p2p0----------------------------------------
G---4-5-7-------------2p0------------------------------------
D-5-4-5-7-----------------2p0--------------------------------
A-5-2-3-5----------------------------------------------------
E-3----------------------------------------------------------

E------------------------------------------------------------
B---4-5-7----------------------------------------------------
G---4-5-7-----7----------------------------------------------
D-5-4-5-7---6---6--------------------------------------------
A-5-2-3-5-5--------------------------------------------------
E-3----------------------------------------------------------

E------------------------------------------------------------
B---4-5-7-b7-------------------------------------------------
G---4-5-7-b7-------------------------------------------------
D-5-4-5-7----------------------------------------------------
A-5-2-3-5----------------------------------------------------
E-3----------------------------------------------------------

Part 3

E------------------------------------------------------------
B---5--------------------------------------------------------
G---5--------------------------------------------------------
D-5-5--------------------------------------------------------
A-5-3--------------------------------------------------------
E-3----------------------------------------------------------
            
Submit corrections

comments powered by Disqus
↑ Back to top | Nemisis Tabs for Liberation. Lyrics for acoustic guitar and electric guitar. 1 Tablatures and chords are parodies/interpretations of the original songs. You may use it for private study, scholarship, research or language learning purposes only