» » »

Kamalas Too Nice Tabs (ver.1)

Artists:  A B C D E F G H I J K L M N O P Q R S T U V W X Y Z # 

Kamalas Too Nice Tabs (ver.1)

Nemisis
Rating:
0/5 (0 votes)

Hard to play? Try these video lessons and learn fast.
                Chords used:
C#5   F#5  G#5  B5
---------------------
---------------------
------11---13---16---
-11---11---13---16---
-11----9---11---14---
--9------------------

Verse:
C#5  | C#5  | F#5 G#5 | C#5

Chorus:
G#5 F#5 | C#5  |

Bridge:
B5 F#5 | F#5 C#5 |
Chords used:
C#5   F#5  G#5  B5
---------------------
---------------------
------11---13---16---
-11---11---13---16---
-11----9---11---14---
--9------------------

Verse:
C#5  | C#5  | F#5 G#5 | C#5

Chorus:
G#5 F#5 | C#5  |

Bridge:
B5 F#5 | F#5 C#5 |
            
Hard to play? Try these video lessons and learn fast. | Correct




comments powered by Disqus
↑ Back to top | Tablatures and chords are parodies/interpretations of the original songs. You may use it for private study, scholarship, research or language learning purposes only