» » »

I Will Remember Tabs (ver.1)

Artists:  A B C D E F G H I J K L M N O P Q R S T U V W X Y Z # 

I Will Remember Tabs (ver.1)

Nemisis
Rating:
0/5 (0 votes)

Hard to play? Try these video lessons and learn fast.
                (Rhythm 1)       -arpeggio-

E---1-----1-----1---0-----0-----3---1-----1-----1---0-----0-----5---
B-----3-----3----------3-----3----------3-----3---------3-----3-------
G-------2-----2----------3-----3----------2-----2---------3-----3-----
D--(0)--------------------------------------------------------------------
A--------------------------------------------------------------------------
E--------------------------------------------------------------------------



               (Chorus part)       -arpeggio-

E------------------------------0---------------------------------------
B----------3----------------3---3-----------3----------------3-------
G-------0----0---0------0--------0------0---0---0-------0----------
D-----3--------3------3----------------3-------3-------3-------------  
A---1---------------0-----------------1---------------0---------------
E-----------------------------------------------------------------------



E------------------------------0---------------------------------------------
B----------3----------------3---3------------3--------3----------3-------3--
G-------0----0---0------0--------0------0--------0----------0--------0-----
D-----3--------3------3---------------3--------3----------3---------3------
A---1---------------0--------------1--------0-------------------------------
E-------------------------------------------------------3--------1----------
            
Hard to play? Try these video lessons and learn fast. | Correct




comments powered by Disqus
↑ Back to top | Tablatures and chords are parodies/interpretations of the original songs. You may use it for private study, scholarship, research or language learning purposes only