» » »

I Will Always Do Tabs (ver.1)

Artists:  A B C D E F G H I J K L M N O P Q R S T U V W X Y Z # 

I Will Always Do Tabs (ver.1)

Nemisis
Rating:
0/5 (0 votes)

Tabs too difficult? Try these video lessons and learn fast.
                both guitars    
e|---------------------------------------------------------------------------|
B|---------------------------------------------------------------------------|
G|---------------------------------------------------------------------------|
D|-------4----8----6---------------------------------------------------------|
A|---4---2----6----4---------------------------------------------------------|
E|---2-----------------------------------------------------------------------|
   p.m.--------------------------------/ 1 guitar mute the other rings out.

e|---------------------------------------------------------------------------|
B|---------------------------------------------------------------------------|
G|---------------------------------------------------------------------------|
D|------4----8----6-----------8----4-----------------------------------------|
A|--4---2----6----4------4----6----2-----------------------------------------|
E|--2--------------------2---------------------------------------------------|
   p.m.------------/ 1 guitar mute the other rings out.

e|---------------------------------------------------------------------------|
B|---------------------------------------------------------------------------|
G|---------------------------------------------------------------------------|
D|------4-------6------------------------------------------------------------|
A|--4---2---4---4------------------------------------------------------------|
E|--2-------2----------------------------------------------------------------|

 both guitars    
e|---------------------------------------------------------------------------|
B|---------------------------------------------------------------------------|
G|---------------------------------------------------------------------------|
D|-------4----8----6---------------------------------------------------------|
A|---4---2----6----4---------------------------------------------------------|
E|---2-----------------------------------------------------------------------|
   p.m.--------------------------------/ 1 guitar mute the other rings out.

e|---------------------------------------------------------------------------|
B|---------------------------------------------------------------------------|
G|---------------------------------------------------------------------------|
D|------4----8----6-----------8----4-----------------------------------------|
A|--4---2----6----4------4----6----2-----------------------------------------|
E|--2--------------------2---------------------------------------------------|
   p.m.------------/ 1 guitar mute the other rings out.

e|---------------------------------------------------------------------------|
B|---------------------------------------------------------------------------|
G|---------------------------------------------------------------------------|
D|------4-------6------------------------------------------------------------|
A|--4---2---4---4------------------------------------------------------------|
E|--2-------2----------------------------------------------------------------|
            
Tabs too difficult? Try these video lessons and learn fast.




comments powered by Disqus
↑ Back to top | Tablatures and chords are parodies/interpretations of the original songs. You may use it for private study, scholarship, research or language learning purposes only