» » »

Nemisis, I Wanna Be Naked Tabs (ver.1)

Artists:  A B C D E F G H I J K L M N O P Q R S T U V W X Y Z # 

I Wanna Be Naked Tabs (ver.1)

Nemisis Tabs
Rating:
0/5 (0 votes)
I Wanna Be Naked lessons Tabs too difficult? Try these video lessons and learn fast
                Chords Used:     C#  B  A  E  F#  G#
             e|-----------------------------|
             B|-----------------------------|
             G|--6---4--2--9--11--13--------|
             D|--6---4--2--9--11--13--------|
             A|--4---2--0--7---9--11--------|
             E|-----------------------------|

Intro: C#, B, C#, B, C#, B, C#

Verse: C#, B, C#, B, A, A, C#  X 2

Chorus: C#, E, A, B  X 2    , then do the intro thingy again

Verse: Same as first verse

Chorus: Same as first chorus

Bridge: C#, F#, G#, C#  X 2

Verse: Same as previous

Chorus: Same as previous except it is played 4 times, not 2

Chords Used:     C#  B  A  E  F#  G#
             e|-----------------------------|
             B|-----------------------------|
             G|--6---4--2--9--11--13--------|
             D|--6---4--2--9--11--13--------|
             A|--4---2--0--7---9--11--------|
             E|-----------------------------|

Intro: C#, B, C#, B, C#, B, C#

Verse: C#, B, C#, B, A, A, C#  X 2

Chorus: C#, E, A, B  X 2    , then do the intro thingy again

Verse: Same as first verse

Chorus: Same as first chorus

Bridge: C#, F#, G#, C#  X 2

Verse: Same as previous

Chorus: Same as previous except it is played 4 times, not 2
            

comments powered by Disqus
↑ Back to top | Nemisis Tabs for I Wanna Be Naked. Lyrics for acoustic guitar and electric guitar. Tablatures and chords are parodies/interpretations of the original songs. You may use it for private study, scholarship, research or language learning purposes only