» » »

I Wanna Be Abducted By Aliens Tabs (ver.1)

Artists:  A B C D E F G H I J K L M N O P Q R S T U V W X Y Z # 

I Wanna Be Abducted By Aliens Tabs (ver.1)

Nemisis
Rating:
0/5 (0 votes)

Hard to play? Try these video lessons and learn fast.
                Lead intro:
(rhythm chords):     B^    E^   C#^         E^    B^  E^
E----------12-11----------------12-11--------------------------11-
B--(bass)--------12--(bass)--12-------12----12----12--12-12-12----
G----------------------------------------11-----------------------

          C#^                E^          B^                E^
E----------------------------12-11-------------------------12-11--
B--12-----12----12----12-12--------12----12----12----12-12--------
G-----11-----11----11-----------------11----11----11--------------

         C#^               E^            B                    E
E----------------------------------------14--14-14--14-14-14--14--
B--12----12----12----12----12----12-------------------------------
G-----11----11----11----11----11----11----------------------------

                    C#                   E                    B
E--14-14--14-14-14--14--14-14--14-14-14--14--14-14--14-14-14--14--
B-----------------------------------------------------------------
G-----------------------------------------------------------------

                   E                   C#                  E
E--14-14--14-14-14-15-14-14--14-14-14--14--14-14--14-14-14-12-11-----
B----------------------------------------------------------------12--
G--------------------------------------------------------------------

   B                       E                       C#
E-----11-12-11----11-12-11----11-12-11----11-12-11----11-12-11--
B--12----------12----------12----------12----------12-----------
G---------------------------------------------------------------

               E                       B
E-----11-12-11----11-12-11----11-12-11----11-12-11----11-12-11--
B--12----------12----------12----------12----------12-----------
G---------------------------------------------------------------

   E                       C#                      E           B         
E-----11-12-11----11-12-11----11-12-11----11-12-11-12-11-12-11----|
B--12----------12----------12----------12----------------------12-|
G-----------------------------------------------------------------|
            
Hard to play? Try these video lessons and learn fast. | Correct




comments powered by Disqus
↑ Back to top | Tablatures and chords are parodies/interpretations of the original songs. You may use it for private study, scholarship, research or language learning purposes only