» » »

I Think Were Alone Now Tabs (ver.1)

Artists:  A B C D E F G H I J K L M N O P Q R S T U V W X Y Z # 

I Think Were Alone Now Tabs (ver.1)

Nemisis
Rating:
0/5 (0 votes)

Tabs too difficult? Try these video lessons and learn fast.
                Verse
e|--------------------------------------------------------------------|
B|--------------------------------------------------------------------|
G|--------------------------------------------------------------------|
D|12121212------------------12121212----------------------------------|
A|1010101012121212-10101010-10101010----------------------------------|
E|--------10101010-8-8-8-8--------------------------------------------|

Pre-Chorus
e|--------------------------------------------------------------------|
B|--------------------------------------------------------------------|
G|--------------------------------------------------------------------|
D|---------999999999---------999999999--------------------------------|
A|99999999977777777799999999977777777799999999944444444444444444------|
E|777777777---------777777777---------77777777766666666666666666------|

Chorus
e|--------------------------------------------------------------------|
B|--------------------------------------------------------------------|
G|--------------------------------------------------------------------|
D|11111111------------11111111----------------------------------------|
A|9-9-9-9-1111111199999-9-9-9-----------------------------------------|
E|--------9-9-9-9-7777------------------------------------------------|
Verse
e|--------------------------------------------------------------------|
B|--------------------------------------------------------------------|
G|--------------------------------------------------------------------|
D|12121212------------------12121212----------------------------------|
A|1010101012121212-10101010-10101010----------------------------------|
E|--------10101010-8-8-8-8--------------------------------------------|

Pre-Chorus
e|--------------------------------------------------------------------|
B|--------------------------------------------------------------------|
G|--------------------------------------------------------------------|
D|---------999999999---------999999999--------------------------------|
A|99999999977777777799999999977777777799999999944444444444444444------|
E|777777777---------777777777---------77777777766666666666666666------|

Chorus
e|--------------------------------------------------------------------|
B|--------------------------------------------------------------------|
G|--------------------------------------------------------------------|
D|11111111------------11111111----------------------------------------|
A|9-9-9-9-1111111199999-9-9-9-----------------------------------------|
E|--------9-9-9-9-7777------------------------------------------------|
            
Tabs too difficult? Try these video lessons and learn fast.


comments powered by Disqus
↑ Back to top | Tablatures and chords are parodies/interpretations of the original songs. You may use it for private study, scholarship, research or language learning purposes only