» » »

Nemisis, In Our World Tabs (ver.1)

Artists:  A B C D E F G H I J K L M N O P Q R S T U V W X Y Z # 

In Our World Tabs (ver.1)

Nemisis Tabs
Rating:
0/5 (0 votes)
In Our World lessons Tabs too difficult? Try these video lessons and learn fast
                Intro/verse
E----------3-------------------------------------------------------------
B----------2-----6-------------------------------------------------------
G----------2-----6------4-6-4--------4h6-4-----------4-------------------
D-------2--2--6--6--4h6---6-4--7--7--------6-4---4h6---------------------
A-------2--2--6--4-------------7--7------------7-------------------------
E-12\0--0--0--4----------------5--4--------------------------------------
        \                       x3                    /

E----3-------------------------------------------------------------------
B----2-----6-------------------------------------------------------------
G----2-----6------4-6-4--------------------------------------------------
D-2--2--6--6--4h6---6-4-7--7--9--7--7--4--6--7---------------------------
A-2--2--6--4------------7--7--9--7--7--4--6--7---------------------------
E-0--0--4---------------5--4--7--5--4--2--4--5---------------------------
                        \  x2 /
Chorus
E------------------------------------------------------------------------
B-------9----------------------------------------------------------------
G-------9----------------------------------------------------------------
D-9--7--9--9-------------------------------------------------------------
A-9--7--7--9-------------------------------------------------------------
E-7--5-----7-------------------------------------------------------------

Bridge
E------------------------------------------------------------------------
B----------------------------------------9--9----------------------------
G--9-----9-----9-----9-----11-----11-----9--9----------------------------
D-----7-----7-----6-----6------9------9--9--9----------------------------
A----------------------------------------7--6----------------------------
E------------------------------------------------------------------------

Outro
E------------------------------------------------------------------------
B-9--9--6--------------4--9----------------------------------------------
G-9--9--6--------------4--9----------------------------------------------
D-9--9--6--6--7--7--4--4--9----------------------------------------------
A-7--6--4--6--7--7--4--2--7----------------------------------------------
E----------4--5--4--2----------------------------------------------------
            
Submit corrections

comments powered by Disqus
↑ Back to top | Nemisis Tabs for In Our World. Lyrics for acoustic guitar and electric guitar. Tablatures and chords are parodies/interpretations of the original songs. You may use it for private study, scholarship, research or language learning purposes only