» » »

Nemisis, I Love You I Think Tabs (ver.1)

Artists:  A B C D E F G H I J K L M N O P Q R S T U V W X Y Z # 

I Love You I Think Tabs (ver.1)

Nemisis Tabs
 Rating:
4/5 (4 votes)
I Love You I Think lessons Tabs too difficult? Try these video lessons and learn fast
1
                The ultimate punk love song. Even thought punk and love song make no sense on
the same sentance.

e|---------------------------------------------------------------------------|
B|---------------------------------------------------------------------------|
G|--9------------9-----------------------------------------------------------|
D|--9---9---7----9-----------------------------------------------------------|
A|--7---9---7----7-----------------------------------------------------------|
E|------7---5----------------------------------------------------------------|

e|---------------------------------------------------------------------------|
B|---------------------------------------------------------------------------|
G|---------------------------------------------------------------------------|
D|---7----9------------------------------------------------------------------|
A|---7----9------------------------------------------------------------------|
E|---5----7------------------------------------------------------------------|

e|---------------------------------------------------------------------------|
B|---------------------------------------------------------------------------|
G|--9------------------------------------------------------------------------|
D|--9----9----7----9---------------------------------------------------------|
A|--7----9----7----9---------------------------------------------------------|
E|-------7----5----7---------------------------------------------------------|

e|---------------------------------------------------------------------------|
B|---------------------------------------------------------------------------|
G|---------------------------------------------------------------------------|
D|---7-----9-----------------------------------------------------------------|
A|---7-----9-----------------------------------------------------------------|
E|---5-----7-----------------------------------------------------------------|
            
Submit corrections

comments powered by Disqus
↑ Back to top | Nemisis Tabs for I Love You I Think. Lyrics for acoustic guitar and electric guitar. 1 Tablatures and chords are parodies/interpretations of the original songs. You may use it for private study, scholarship, research or language learning purposes only