» » »

Ill Stop The Rain Tabs (ver.1)

Artists:  A B C D E F G H I J K L M N O P Q R S T U V W X Y Z # 

Ill Stop The Rain Tabs (ver.1)

Nemisis
Rating:
0/5 (0 votes)

Hard to play? Try these video lessons and learn fast.
                p.m.----------------------------------/
e|---------------------------------------------------------------------------|
B|---------------------------------------------------------------------------|
G|---------------------------------------------------------------------------|
D|---9-----------9------9----------9-----------------------------------------|
A|---7---9---7---7------7--9---7---7---9-------------------------------------|
E|-------7---5-------------7---5-------7-------------------------------------|

   Chorus
e|---------------------------------------------------------------------------|
B|---------------------------------------------------------------------------|
G|--9------------------------------------------------------------------------|
D|--9---9----12----7---------------------------------------------------------|
A|--7---9----12----7---------------------------------------------------------|
E|------7----10----5---------------------------------------------------------|

    Solo
e|---------------------------------------------------------------------------|
B|---------------------------------------------------------------------------|
G|---------------------------------------------------------------------------|
D|--9----11--9-----11--9----11---9---7---6-------9---11---9----7----6--------|
A|------------------------------------------9--------------------------7-----|
E|---------------------------------------------------------------------------|

e|---------------------------------------------------------------------------|
B|---------------------------------------------------------------------------|
G|---------------------------------------------------------------------------|
D|-9--11--9--------9--11--9--------------------------------------------------|
A|-----------7---------------7-----------------------------------------------|
E|---------------------------------------7-----------------------------------|

     Verse 2  (no palm mute)
e|---------------------------------------------------------------------------|
B|---------------------------------------------------------------------------|
G|---9-----------9------9----------9-----------------------------------------|
D|---9---9---7---9------9--9---7---9---9-------------------------------------|
A|---7---9---7---7------7--9---7---7---9-------------------------------------|
E|-------7---5-------------7---5-------7-------------------------------------|

     Chorus  (until your fingers bleed)
e|---------------------------------------------------------------------------|
B|---------------------------------------------------------------------------|
G|--9------------------------------------------------------------------------|
D|--9---9----12----7---------------------------------------------------------|
A|--7---9----12----7---------------------------------------------------------|
E|------7----10----5---------------------------------------------------------|
            
Hard to play? Try these video lessons and learn fast. | Correct




comments powered by Disqus
↑ Back to top | Tablatures and chords are parodies/interpretations of the original songs. You may use it for private study, scholarship, research or language learning purposes only