» » »

Nemisis, I Keep On Trying Tabs (ver.1)

Artists:  A B C D E F G H I J K L M N O P Q R S T U V W X Y Z # 

I Keep On Trying Tabs (ver.1)

Nemisis Tabs
Rating:
0/5 (0 votes)
I Keep On Trying lessons Tabs too difficult? Try these video lessons and learn fast
                Intro/Verse
E------------------------------------10\3-----------------------------
B-----------10\3--3h4p3-3------------10\3-----------------------------
G-----------10\3--3-3-3-3------------10\3-----------------------------
D-----------10\3---------------------10\3-3-3-5-3---------------------
A-6-6-8-8-8----1-----------6-6-8-8-8----1-1-0-3-1---------------------
E-4-4-6-6-6----------------4-4-6-6-6----------------------------------

E---------------------------------------------------------------------
B----8----------------------------------------------------------------
G----8----------------------------------------------------------------
D-6--8----------------------------------------------------------------
A-6--6----------------------------------------------------------------
E-4-------------------------------------------------------------------
Maybe I'll always want more..

Chorus
E---------------------------------------------------------------------
B---11-10-----8--5-10-------------------------------------------------
G---11-10-----8--5-10-------------------------------------------------
D-8-11-10--5--8--5-10-------------------------------------------------
A-8--8--7--5--6--3--8-------------------------------------------------
E-6--------3----------------------------------------------------------
            

comments powered by Disqus
↑ Back to top | Nemisis Tabs for I Keep On Trying. Lyrics for acoustic guitar and electric guitar. Tablatures and chords are parodies/interpretations of the original songs. You may use it for private study, scholarship, research or language learning purposes only