» » »

Nemisis, I Dont Wanna Be Friends Tabs (ver.1)

Artists:  A B C D E F G H I J K L M N O P Q R S T U V W X Y Z # 

I Dont Wanna Be Friends Tabs (ver.1)

Nemisis Tabs
 Rating:
4/5 (4 votes)
I Dont Wanna Be Friends lessons Tabs too difficult? Try these video lessons and learn fast
                Chords used:
e|--(C#)-(E)-(A)-(B)-(F#)--|
B|-------------------------|
G|----6----9----------11---|
D|----6----9--7---9---11---|
A|----4----7--7---9----9---|
E|------------5---7--------|

Intro: F# - C#DC#A (x3)
         F# - C
Verses: F# - C# - E - B - F# - C#DC#A
Pre-Chorus: B - C# - F# - C# - B - C#
Chorus: F# - C# - B - C# - F#
Chords used:
e|--(C#)-(E)-(A)-(B)-(F#)--|
B|-------------------------|
G|----6----9----------11---|
D|----6----9--7---9---11---|
A|----4----7--7---9----9---|
E|------------5---7--------|

Intro: F# - C#DC#A (x3)
         F# - C
Verses: F# - C# - E - B - F# - C#DC#A
Chorus: B - C# - F# - C# - B - C#
Chorus: F# - C# - B - C# - F#
Chords used:
e|--(C#)-(E)-(A)-(B)-(F#)--|
B|-------------------------|
G|----6----9----------11---|
D|----6----9--7---9---11---|
A|----4----7--7---9----9---|
E|------------5---7--------|

Intro: F# - C#DC#A (x3)
         F# - C
Verses: F# - C# - E - B - F# - C#DC#A
Pre-Chorus: B - C# - F# - C# - B - C#
Chorus: F# - C# - B - C# - F#
            
Submit corrections

comments powered by Disqus
↑ Back to top | Nemisis Tabs for I Dont Wanna Be Friends. Lyrics for acoustic guitar and electric guitar. Tablatures and chords are parodies/interpretations of the original songs. You may use it for private study, scholarship, research or language learning purposes only