>
 >
Highskool Psycho

Highskool Psycho Guitar Tabs

Nemisis - Highskool Psycho chords, tabs, tablatures, lyrics

Guitar lessons | Add/correct | Request | Top 50 tabs Artists:  A B C D E F G H I J K L M N O P Q R S T U V W X Y Z 0-9

Highskool Psycho Guitar Tabs – Nemisis

CD, Sheet music, Poster

Do you like Highskool Psycho? Share with your friends now
Tabs
Intro/chorus  - just repeat as many times as needed
   ....I'm a highschool, psycopath....i need therapy
e|---------------------------------------------------------------------------|
B|---------------------------------------------------------------------------|
G|-----7--7----------------------------------9-------------------------------|
D|----7--7--**---7--9--7----5--5------7--9--9--------------------------------|
A|---5--5-------7--9--7----5--5--**--7--9--7---------------------------------|
E|-------------5--7--5----3--3------5--7-------------------------------------|

       **=Palm mute-smother thing
        
<main guitar riff) ...I didn't pledge allegiance cos I thought it was uncool...
   Its  this over, and over.  
e|---------------------------------------------------------------------------|
B|---------------------------------------------------------------------------|
G|------------9---9--9--9-- 9--9--9------------------------------------------|
D|-----------9---9--9--9-- 9--9--9----------7--9-----------------------------|
A|----------7---7--7--7-- 7--7--7----------7--9------------------------------|
E|----------------------------------------5--7-------------------------------|

            D  U  D.... >>>>
strumming pattern: D= down, u = up.  Each D U D after the first D 
(which counts as 1) is 1 time.  You do 7 D-U-D's before the  two strokes after 
the >>>>.  the very first time when this strumming pattern is introduced, its 
6 DUD's.  i hope it makes sense.. and do as many times as needed.

Bridge...     -.... Oooh, ooh, ohh, ohh ooooOOO...
Main thing, again, simple.  its the bass doing the cool riff.
e|---------------------------------------------------------------------------|
B|---------------------------------------------------------------------------|
G|--------9-------------9------------7---------------------7-----------------|
D|--------9-------5-----9------9---7-7---7--9------------7-7---7--9----------|
A|--------7-------5-----7------9---7-5---7--9------------7-5---7--9----------|
E|----------------3------------7---5-----5--7------------5-----5--7----------|





Comments


Popular Nemisis tabs & chords
7-11 Tabs
Celena Tabs
I Wanna Be Abducted By Aliens Tabs
I Will Always Do Tabs
Im Gonna Strangle You Tabs
In Our World Tabs
One Step Beyond Tabs
Pinkhouse Tabs
Reasons Tabs
The Killing Words Tabs


Song lyrics



↑ Back to top | Tablatures and chords are parodies/interpretations of the original songs. You may use it for private study, scholarship, research or language learning purposes only
© 2014 AZChords.com Contact us | Privacy policy | DMCA | Add/correct tabs | Request tabs | Top 50 tabs