» » »

Nemisis, Hey Joe Tabs (ver.1)

Artists:  A B C D E F G H I J K L M N O P Q R S T U V W X Y Z # 

Hey Joe Tabs (ver.1)

Nemisis Tabs
 Rating:
4/5 (4 votes)
Hey Joe lessons Tabs too difficult? Try these video lessons and learn fast
1
                intro
e|------------------------------------3-3-2----------------------------------|
B|---s5--3--0-------------------------3-3-2------------------3---3-----------|
G|-------------2--0--------------4----4-4-4--------4---2--2h4-2h4-2h4--------|
D|-------------------2-----------2----5-5-5--------2-------------------------|
A|---------------------------------------------------------------------------|
E|------------------------0--0----------------0-0----------------------------|

verse
e|------------------------3-3------------------3-----------------------------|
B|------------------------3-3------------------3---------3---3---------------|
G|-5-------7---2----------4-4------------------4---2--2h4-2h4-2h4------------|
D|-5---5---7---2----------5-5-------0h2--------5-----------------------------|
A|-3---5---5---0----------------0h2------------------------------------------|
E|-----3-----------0--0-------------------0-0--------------------------------|

solo
e|--12-12-12-12-10-----------15-----15------15-------------------------------|
B|--12-12-12-12----10---12h15--12h15---12h15----11(bend)11(bend)--8----------|
G|---------------------------------------------------------------------------|
D|---------------------------------------------------------------------------|
A|---------------------------------------------------------------------------|
E|---------------------------------------------------------------------------|

more solo
e|------------------------------3-0-3-5-3-0-3-3--3-0-3-5-3-0-10-9-7-7--------|
B|-------10-11(bend)11(bend)8---3-0-3-5-3-0-3-3--3-0-3-5-3-0-10-9-7-7--------|
G|--9-12---------------------------------------------------------------------|
D|---------------------------------------------------------------------------|
A|---------------------------------------------------------------------------|
E|---------------------------------------------------------------------------|

e|---------------------------------------------------------------------------|
B|------10-11-11-8---11-8----------------------------------------------------|
G|-9-12----------------------------------------------------------------------|
D|-------------------------------0-----0----0---------0h2p0------------------|
A|-----------------------------0--2--0--2-0--2--0h2p0------0h2p0-------------|
E|---------------------------0------0----0-----------------------0h2p0--0----|

e|-3-3---------------3-3-3-3--3-0-3-5-3-0-3-3-3-0-3-5-3-0-10-9-7-7-----------|
B|-3-3---------------3-3-3-3--3-0-3-5-3-0-3-3-3-0-3-5-3-0-10-9-7-7-----------|
G|-4-4---------------4-4-4-4-----------------------------------------10-11-8-|
D|-5-5------0h2------5-5-5-5--------------------------------------9-12-------|
A|------0h2------------------------------------------------------------------|
E|---------------0-----------------------------------------------------------|

e|-----------------------------------3-3------------3-3----------------------|
B|-----------------------------------3-3------------3-3-----3---3------------|
G|-5-------2-3-5-2-2-------2-3-5-2-4-4-4------------4-4--2h4-2h4-2h4---------|
D|-5-2-3-5-2-3-5-0-1-2-3-5-2-3-5-0-2-5-5----0h2-----5-5-------------repeat---|
A|-3-2-3-5-0-1-3-----2-3-5-0-1-3---------0h2---------------------------------|
E|---0-1-3-----------0-1-3---------------------0--0--------------------------|

end
e|---------------------------------------------------------------------------|
B|---------------------------------------------------------------------------|
G|-4_bend2 --4--0h20h20h2--4-4-----------------------------------------------|
D|---------2---------------2-2-----------------------------------------------|
A|---------------------------------------------------------------------------|
E|---------------------------------------------------------------------------|
            
Submit corrections

comments powered by Disqus
↑ Back to top | Nemisis Tabs for Hey Joe. Lyrics for acoustic guitar and electric guitar. 1 Tablatures and chords are parodies/interpretations of the original songs. You may use it for private study, scholarship, research or language learning purposes only