» » »

Nemisis, Hardcore Lover Tabs (ver.1)

Artists:  A B C D E F G H I J K L M N O P Q R S T U V W X Y Z # 

Hardcore Lover Tabs (ver.1)

Nemisis Tabs
Rating:
0/5 (0 votes)
Hardcore Lover lessons Tabs too difficult? Try these video lessons and learn fast
                Here is the guitar line played throughout the song...
e|---------------------------------------------------------------------------|
B|---------------------------------------------------------------------------|
G|---------------------------------------------------------------------------|
D|---------9-9-9-x-x-x-x-9-9-x-x-4-5-x-x-4-5-x-x-----------------------------|
A|---------7-7-7-x-x-x-x-7-7-x-x-2-3-x-x-2-3-x-x-----------------------------|
E|---------------------------------------------------------------------------|
    "your in....."  "stage....."
e|---------------------------------------------------------------------------|
B|---------------------------------------------------------------------------|
G|---------------------------------------------------------------------------|
D|----7----------------------------------------------------------------------|
A|----5-x8-------------------------------------------------------------------|
E|---------------------------------------------------------------------------|
   After they yell, "it's holy hardocre" go back to the beginning"

    and here is the solo (it isn't too hard to play once you get the hang of it)
e|---------------------------------------------------------------------------|
B|-15p13p12-15p13p12-15p13p12-15p13p12-15p13p12-15p13p12-15p13p12-15p13p12---|
G|---------------------------------------------------------------------------|
D|---------------------------------------------------------------------------|
A|---------------------------------------------------------------------------|
E|---------------------------------------------------------------------------|

e|--------------------------------t19p15p12-t19p15p12-t19p15p12-t19p15p12----|
B|-12----12-12----12-12-----12-----------------------------------------------|
G|-14b16----14b16----14b16--14b16--------------------------------------------|
D|---------------------------------------------------------------------------|
A|---------------------------------------------------------------------------|
E|---------------------------------------------------------------------------|

e|-t20p15p12-t20p15p12-t20p15p12-t20p15p12-16b17-16b17-13-16b17b18-13--------|
B|---------------------------------------------------------------------------|
G|---------------------------------------------------------------------------|
D|---------------------------------------------------------------------------|
A|---------------------------------------------------------------------------|
E|---------------------------------------------------------------------------|
            
Submit corrections

comments powered by Disqus
↑ Back to top | Nemisis Tabs for Hardcore Lover. Lyrics for acoustic guitar and electric guitar. Tablatures and chords are parodies/interpretations of the original songs. You may use it for private study, scholarship, research or language learning purposes only