» » »

Good Morning Tabs (ver.1)

Artists:  A B C D E F G H I J K L M N O P Q R S T U V W X Y Z # 

Good Morning Tabs (ver.1)

Nemisis
Rating:
0/5 (0 votes)

Hard to play? Try these video lessons and learn fast.
                Verse
--9-------13--------------------------------------------------------------
--9---9---13---13---------------------------------------------------------
--7---9---11---13---------------------------------------------------------
-------7--------11--------------------------------------------------------

(These chords are repeated a couple times in the song, I just put them down
once each, if you hear the song you'll figure it out)

Chorus
--9-------6---13----------------------------------------------------------
--9---9---6---13----------------------------------------------------------
--7---9---4---11----------------------------------------------------------
------7-------------------------------------------------------------------

It's a good morning, I'm up with a smile on my face (repeat)

Chorus

Ending part thing
------------9--------------------------------------------------------------
--11---7----9---9----------------------------------------------------------
--11---7----7---9----------------------------------------------------------
--9----5--------7----------------------------------------------------------
            
Hard to play? Try these video lessons and learn fast. | Correct




comments powered by Disqus
↑ Back to top | Tablatures and chords are parodies/interpretations of the original songs. You may use it for private study, scholarship, research or language learning purposes only