» » »

Nemisis, Fathead Tabs (ver.1)

Artists:  A B C D E F G H I J K L M N O P Q R S T U V W X Y Z # 

Fathead Tabs (ver.1)

Nemisis Tabs
 Rating:
4/5 (4 votes)
Fathead lessons Tabs too difficult? Try these video lessons and learn fast
                e|--------------------------------------------------------------------|
B|--------------------------------------------------------------------|
G|---------------10---------------------------------------------------|
D|---10-10-10-10-10-10-------8--8-8-8-10------------------------------|
A|---10-10-10-10--8-10-------8--8-8-8-10------------------------------|
E|----8--8---8--8----8-------6--6-6-6- 8------------------------------|

Rippin Solo:
e|---12--12--12--12--12--12 ----10--13--13--10------------------------|
B|--------------------------------------------------------------------|
G|--------------------------------------------------------------------|
D|--------------------------------------------------------------------|
A|--------------------------------------------------------------------|
E|--------------------------------------------------------------------|
            
Submit corrections

comments powered by Disqus
↑ Back to top | Nemisis Tabs for Fathead. Lyrics for acoustic guitar and electric guitar. Tablatures and chords are parodies/interpretations of the original songs. You may use it for private study, scholarship, research or language learning purposes only