» » »

Nemisis, Dummy Up Tabs (ver.1)

Artists:  A B C D E F G H I J K L M N O P Q R S T U V W X Y Z # 

Dummy Up Tabs (ver.1)

Nemisis Tabs
Rating:
0/5 (0 votes)
Dummy Up lessons Tabs too difficult? Try these video lessons and learn fast
                VERSE:
e|---------------------------------------------------------------------------|
B|---------------------------------------------------------------------------|
G|--6-----------------------6------------------------------------------------|
D|--6-(pm)--4-------6-------6-(pm)-------------------------------------------|
A|--4-------4-(pm)--6-(pm)--4------------------------------------------------|
E|----------2-------4--------------------------------------------------------|
    (They want the truth...)

  CHORUS 1:
e|---------------------------------------------------------------------------|
B|---------------------------------------------------------------------------|
G|------9---7---9------------------------------------------------------------|
D|--7---9---7---9------------------------------------------------------------|
A|--7---7---5---7------------------------------------------------------------|
E|--5------------------------------------------------------------------------|
    (They can't make you...)

  VERSE:
e|---------------------------------------------------------------------------|
B|---------------------------------------------------------------------------|
G|--6-----------------------6------------------------------------------------|
D|--6-(pm)--4-------6-------6-(pm)-------------------------------------------|
A|--4-------4-(pm)--6-(pm)--4------------------------------------------------|
E|----------2-------4--------------------------------------------------------|
     (Keep it mum...)

  CHORUS 1

  VERSE:
e|---------------------------------------------------------------------------|
B|---------------------------------------------------------------------------|
G|--8-----------------------8------------------------------------------------|
D|--8-(pm)--6-------8-------8-(pm)-------------------------------------------|
A|--6-------6-(pm)--8-(pm)--6------------------------------------------------|
E|----------4-------6--------------------------------------------------------|
     (Keep it zipped...)

  CHORUS 2:
e|---------------------------------------------------------------------------|
B|---------------------------------------------------------------------------|
G|------11---9---11----------------------------------------------------------|
D|--9---11---9---11----------------------------------------------------------|
A|--9----9---7----9----------------------------------------------------------|
E|--7------------------------------------------------------------------------|
     (They can't make you...)
            
Submit corrections

comments powered by Disqus
↑ Back to top | Nemisis Tabs for Dummy Up. Lyrics for acoustic guitar and electric guitar. Tablatures and chords are parodies/interpretations of the original songs. You may use it for private study, scholarship, research or language learning purposes only