» » »

Nemisis, Dont Turn The Lights Off Tabs (ver.1)

Artists:  A B C D E F G H I J K L M N O P Q R S T U V W X Y Z # 

Dont Turn The Lights Off Tabs (ver.1)

Nemisis Tabs
Rating:
0/5 (0 votes)
Hard to play? Try these video lessons and learn fast.
                CHORD LISTING
e|--------------------------------------------------------------------|
B|--G---D---------E---------------------------------------------------|
G|------7--A---B--9---------------------------------------------------|
D|--5---7--7---9--9---------------------------------------------------|
A|--3---5--7---9--7---------------------------------------------------|
E|--3------5---7------------------------------------------------------|

LEAD IN INTRO.
e|--------------------------------------------------------------------|
B|--------------------------------------------------------------------|
G|-9-11-12-------12-11-------11-9-6----11-9-6-------------------------|
D|---------12-9--------12-----------7---------7------2x---------------|
A|------------------------12------------------------------------------|
E|--------------------------------------------------------------------|

LEAD IN VERSE
e|--------------------------------------------------------------------|
B|--------------------------------------------------------------------|
G|-11--11--11--9--7--0------------------------------------------------|
D|-11--11--11--9--7--0---2x-------------------------------------------|
A|--------------------------------------------------------------------|
E|--------------------------------------------------------------------|

SONG FORMAT IN ORDER

INTRO
G D A 4x

PART BEFORE VERSE
A/B D/E G D A 2x

VERSE
B D A E ?x

PRE-CHORUS
G D A

PART BEFORE VERSE
(repeat)

VERSE

PRE-CHORUS

CHORUS
G D A
            

comments powered by Disqus
↑ Back to top | Nemisis Tabs for Dont Turn The Lights Off. Lyrics for acoustic guitar and electric guitar. Tablatures and chords are parodies/interpretations of the original songs. You may use it for private study, scholarship, research or language learning purposes only